  0
SECTION
  2
HEADER
  9
$ACADVER
  1
AC1018
  9
$ACADMAINTVER
 70
     0
  9
$DWGCODEPAGE
  3
ANSI_1252
  9
$INSBASE
 10
0.0
 20
0.0
 30
0.0
  9
$EXTMIN
 10
0.0
 20
-50.55599212646484
 30
0.0
  9
$EXTMAX
 10
56.84545135498047
 20
0.0
 30
179.1209259033203
  9
$LIMMIN
 10
0.0
 20
0.0
  9
$LIMMAX
 10
12.0
 20
9.0
  9
$ORTHOMODE
 70
     0
  9
$REGENMODE
 70
     1
  9
$FILLMODE
 70
     1
  9
$QTEXTMODE
 70
     0
  9
$MIRRTEXT
 70
     1
  9
$LTSCALE
 40
1.0
  9
$ATTMODE
 70
     1
  9
$TEXTSIZE
 40
0.2
  9
$TRACEWID
 40
0.05
  9
$TEXTSTYLE
  7
Standard
  9
$CLAYER
  8
0
  9
$CELTYPE
  6
ByLayer
  9
$CECOLOR
 62
   256
  9
$CELTSCALE
 40
1.0
  9
$DISPSILH
 70
     0
  9
$DIMSCALE
 40
1.0
  9
$DIMASZ
 40
0.18
  9
$DIMEXO
 40
0.0625
  9
$DIMDLI
 40
0.38
  9
$DIMRND
 40
0.0
  9
$DIMDLE
 40
0.0
  9
$DIMEXE
 40
0.18
  9
$DIMTP
 40
0.0
  9
$DIMTM
 40
0.0
  9
$DIMTXT
 40
0.18
  9
$DIMCEN
 40
0.09
  9
$DIMTSZ
 40
0.0
  9
$DIMTOL
 70
     0
  9
$DIMLIM
 70
     0
  9
$DIMTIH
 70
     1
  9
$DIMTOH
 70
     1
  9
$DIMSE1
 70
     0
  9
$DIMSE2
 70
     0
  9
$DIMTAD
 70
     0
  9
$DIMZIN
 70
     0
  9
$DIMBLK
  1

  9
$DIMASO
 70
     1
  9
$DIMSHO
 70
     1
  9
$DIMPOST
  1

  9
$DIMAPOST
  1

  9
$DIMALT
 70
     0
  9
$DIMALTD
 70
     2
  9
$DIMALTF
 40
25.4
  9
$DIMLFAC
 40
1.0
  9
$DIMTOFL
 70
     0
  9
$DIMTVP
 40
0.0
  9
$DIMTIX
 70
     0
  9
$DIMSOXD
 70
     0
  9
$DIMSAH
 70
     0
  9
$DIMBLK1
  1

  9
$DIMBLK2
  1

  9
$DIMSTYLE
  2
Standard
  9
$DIMCLRD
 70
     0
  9
$DIMCLRE
 70
     0
  9
$DIMCLRT
 70
     0
  9
$DIMTFAC
 40
1.0
  9
$DIMGAP
 40
0.09
  9
$DIMJUST
 70
     0
  9
$DIMSD1
 70
     0
  9
$DIMSD2
 70
     0
  9
$DIMTOLJ
 70
     1
  9
$DIMTZIN
 70
     0
  9
$DIMALTZ
 70
     0
  9
$DIMALTTZ
 70
     0
  9
$DIMUPT
 70
     0
  9
$DIMDEC
 70
     4
  9
$DIMTDEC
 70
     4
  9
$DIMALTU
 70
     2
  9
$DIMALTTD
 70
     2
  9
$DIMTXSTY
  7
Standard
  9
$DIMAUNIT
 70
     0
  9
$DIMADEC
 70
     0
  9
$DIMALTRND
 40
0.0
  9
$DIMAZIN
 70
     0
  9
$DIMDSEP
 70
    46
  9
$DIMATFIT
 70
     3
  9
$DIMFRAC
 70
     0
  9
$DIMLDRBLK
  1

  9
$DIMLUNIT
 70
     2
  9
$DIMLWD
 70
    -2
  9
$DIMLWE
 70
    -2
  9
$DIMTMOVE
 70
     2
  9
$LUNITS
 70
     2
  9
$LUPREC
 70
     4
  9
$SKETCHINC
 40
0.1
  9
$FILLETRAD
 40
0.5
  9
$AUNITS
 70
     0
  9
$AUPREC
 70
     0
  9
$MENU
  1
.
  9
$ELEVATION
 40
0.0
  9
$PELEVATION
 40
0.0
  9
$THICKNESS
 40
0.0
  9
$LIMCHECK
 70
     0
  9
$CHAMFERA
 40
0.5
  9
$CHAMFERB
 40
0.5
  9
$CHAMFERC
 40
1.0
  9
$CHAMFERD
 40
0.0
  9
$SKPOLY
 70
     0
  9
$TDCREATE
 40
2459177.604520729
  9
$TDUCREATE
 40
2459177.729520729
  9
$TDUPDATE
 40
2459177.604520741
  9
$TDUUPDATE
 40
2459177.729520741
  9
$TDINDWG
 40
0.0000000116
  9
$TDUSRTIMER
 40
0.0000000116
  9
$USRTIMER
 70
     1
  9
$ANGBASE
 50
0.0
  9
$ANGDIR
 70
     0
  9
$PDMODE
 70
     0
  9
$PDSIZE
 40
0.0
  9
$PLINEWID
 40
0.0
  9
$SPLFRAME
 70
     0
  9
$SPLINETYPE
 70
     6
  9
$SPLINESEGS
 70
     8
  9
$HANDSEED
  5
2E4
  9
$SURFTAB1
 70
     6
  9
$SURFTAB2
 70
     6
  9
$SURFTYPE
 70
     6
  9
$SURFU
 70
     6
  9
$SURFV
 70
     6
  9
$UCSBASE
  2

  9
$UCSNAME
  2

  9
$UCSORG
 10
0.0
 20
0.0
 30
0.0
  9
$UCSXDIR
 10
1.0
 20
0.0
 30
0.0
  9
$UCSYDIR
 10
0.0
 20
1.0
 30
0.0
  9
$UCSORTHOREF
  2

  9
$UCSORTHOVIEW
 70
     0
  9
$UCSORGTOP
 10
0.0
 20
0.0
 30
0.0
  9
$UCSORGBOTTOM
 10
0.0
 20
0.0
 30
0.0
  9
$UCSORGLEFT
 10
0.0
 20
0.0
 30
0.0
  9
$UCSORGRIGHT
 10
0.0
 20
0.0
 30
0.0
  9
$UCSORGFRONT
 10
0.0
 20
0.0
 30
0.0
  9
$UCSORGBACK
 10
0.0
 20
0.0
 30
0.0
  9
$PUCSBASE
  2

  9
$PUCSNAME
  2

  9
$PUCSORG
 10
0.0
 20
0.0
 30
0.0
  9
$PUCSXDIR
 10
1.0
 20
0.0
 30
0.0
  9
$PUCSYDIR
 10
0.0
 20
1.0
 30
0.0
  9
$PUCSORTHOREF
  2

  9
$PUCSORTHOVIEW
 70
     0
  9
$PUCSORGTOP
 10
0.0
 20
0.0
 30
0.0
  9
$PUCSORGBOTTOM
 10
0.0
 20
0.0
 30
0.0
  9
$PUCSORGLEFT
 10
0.0
 20
0.0
 30
0.0
  9
$PUCSORGRIGHT
 10
0.0
 20
0.0
 30
0.0
  9
$PUCSORGFRONT
 10
0.0
 20
0.0
 30
0.0
  9
$PUCSORGBACK
 10
0.0
 20
0.0
 30
0.0
  9
$USERI1
 70
     0
  9
$USERI2
 70
     0
  9
$USERI3
 70
     0
  9
$USERI4
 70
     0
  9
$USERI5
 70
     0
  9
$USERR1
 40
0.0
  9
$USERR2
 40
0.0
  9
$USERR3
 40
0.0
  9
$USERR4
 40
0.0
  9
$USERR5
 40
0.0
  9
$WORLDVIEW
 70
     1
  9
$SHADEDGE
 70
     3
  9
$SHADEDIF
 70
    70
  9
$TILEMODE
 70
     1
  9
$MAXACTVP
 70
    64
  9
$PINSBASE
 10
0.0
 20
0.0
 30
0.0
  9
$PLIMCHECK
 70
     0
  9
$PEXTMIN
 10
1.000000000000000E+20
 20
1.000000000000000E+20
 30
1.000000000000000E+20
  9
$PEXTMAX
 10
-1.000000000000000E+20
 20
-1.000000000000000E+20
 30
-1.000000000000000E+20
  9
$PLIMMIN
 10
0.0
 20
0.0
  9
$PLIMMAX
 10
12.0
 20
9.0
  9
$UNITMODE
 70
     0
  9
$VISRETAIN
 70
     1
  9
$PLINEGEN
 70
     0
  9
$PSLTSCALE
 70
     1
  9
$TREEDEPTH
 70
  3020
  9
$CMLSTYLE
  2
Standard
  9
$CMLJUST
 70
     0
  9
$CMLSCALE
 40
1.0
  9
$PROXYGRAPHICS
 70
     1
  9
$MEASUREMENT
 70
     0
  9
$CELWEIGHT
370
    -1
  9
$ENDCAPS
280
     0
  9
$JOINSTYLE
280
     0
  9
$LWDISPLAY
290
     0
  9
$INSUNITS
 70
     4
  9
$HYPERLINKBASE
  1

  9
$STYLESHEET
  1

  9
$XEDIT
290
     1
  9
$CEPSNTYPE
380
     0
  9
$PSTYLEMODE
290
     1
  9
$FINGERPRINTGUID
  2
{4E930B99-F1A8-4A67-BC38-652C515E0E1D}
  9
$VERSIONGUID
  2
{FAEB1C32-E019-11D5-929B-00C0DF256EC4}
  9
$EXTNAMES
290
     1
  9
$PSVPSCALE
 40
0.0
  9
$OLESTARTUP
290
     0
  9
$SORTENTS
280
   127
  9
$INDEXCTL
280
     0
  9
$HIDETEXT
280
     1
  9
$XCLIPFRAME
290
     0
  9
$HALOGAP
280
     0
  9
$OBSCOLOR
 70
   257
  9
$OBSLTYPE
280
     0
  9
$INTERSECTIONDISPLAY
280
     0
  9
$INTERSECTIONCOLOR
 70
   257
  9
$DIMASSOC
280
     2
  9
$PROJECTNAME
  1

  0
ENDSEC
  0
SECTION
  2
CLASSES
  0
CLASS
  1
ACDBDICTIONARYWDFLT
  2
AcDbDictionaryWithDefault
  3
ObjectDBX Classes
 90
        0
 91
        4
280
     0
281
     0
  0
CLASS
  1
VISUALSTYLE
  2
AcDbVisualStyle
  3
ObjectDBX Classes
 90
     4095
 91
        4
280
     0
281
     0
  0
ENDSEC
  0
SECTION
  2
TABLES
  0
TABLE
  2
VPORT
  5
8
330
0
100
AcDbSymbolTable
 70
     1
  0
VPORT
  5
29
330
8
100
AcDbSymbolTableRecord
100
AcDbViewportTableRecord
  2
*Active
 70
     0
 10
0.0
 20
0.0
 11
1.0
 21
1.0
 12
28.42272567749023
 22
-25.27799606323242
 13
0.0
 23
0.0
 14
0.5
 24
0.5
 15
0.5
 25
0.5
 16
0.0
 26
0.0
 36
1.0
 17
0.0
 27
0.0
 37
0.0
 40
51.56711196899414
 41
1.1244058115363
 42
50.0
 43
0.0
 44
0.0
 50
0.0
 51
0.0
 71
     0
 72
   100
 73
     1
 74
     3
 75
     0
 76
     0
 77
     0
 78
     0
281
     0
 65
     1
110
0.0
120
0.0
130
0.0
111
1.0
121
0.0
131
0.0
112
0.0
122
1.0
132
0.0
 79
     0
146
0.0
  0
ENDTAB
  0
TABLE
  2
LTYPE
  5
5
330
0
100
AcDbSymbolTable
 70
     1
  0
LTYPE
  5
14
330
5
100
AcDbSymbolTableRecord
100
AcDbLinetypeTableRecord
  2
ByBlock
 70
     0
  3

 72
    65
 73
     0
 40
0.0
  0
LTYPE
  5
15
330
5
100
AcDbSymbolTableRecord
100
AcDbLinetypeTableRecord
  2
ByLayer
 70
     0
  3

 72
    65
 73
     0
 40
0.0
  0
LTYPE
  5
16
330
5
100
AcDbSymbolTableRecord
100
AcDbLinetypeTableRecord
  2
Continuous
 70
     0
  3
Solid line
 72
    65
 73
     0
 40
0.0
  0
ENDTAB
  0
TABLE
  2
LAYER
  5
2
330
0
100
AcDbSymbolTable
 70
     2
  0
LAYER
  5
10
330
2
100
AcDbSymbolTableRecord
100
AcDbLayerTableRecord
  2
0
 70
     0
 62
     7
  6
Continuous
370
    -3
390
F
  0
LAYER
  5
3B
330
2
100
AcDbSymbolTableRecord
100
AcDbLayerTableRecord
  2
BASE
 70
     0
 62
    30
  6
Continuous
370
    -3
390
F
  0
ENDTAB
  0
TABLE
  2
STYLE
  5
3
330
0
100
AcDbSymbolTable
 70
     1
  0
STYLE
  5
11
330
3
100
AcDbSymbolTableRecord
100
AcDbTextStyleTableRecord
  2
Standard
 70
     0
 40
0.0
 41
1.0
 50
0.0
 71
     0
 42
0.2
  3
txt
  4

  0
ENDTAB
  0
TABLE
  2
VIEW
  5
6
330
0
100
AcDbSymbolTable
 70
     0
  0
ENDTAB
  0
TABLE
  2
UCS
  5
7
330
0
100
AcDbSymbolTable
 70
     0
  0
ENDTAB
  0
TABLE
  2
APPID
  5
9
330
0
100
AcDbSymbolTable
 70
     1
  0
APPID
  5
12
330
9
100
AcDbSymbolTableRecord
100
AcDbRegAppTableRecord
  2
ACAD
 70
     0
  0
ENDTAB
  0
TABLE
  2
DIMSTYLE
  5
A
330
0
100
AcDbSymbolTable
 70
     1
100
AcDbDimStyleTable
  0
DIMSTYLE
105
27
330
A
100
AcDbSymbolTableRecord
100
AcDbDimStyleTableRecord
  2
Standard
 70
     0
340
11
  0
ENDTAB
  0
TABLE
  2
BLOCK_RECORD
  5
1
330
0
100
AcDbSymbolTable
 70
     1
  0
BLOCK_RECORD
  5
1F
330
1
100
AcDbSymbolTableRecord
100
AcDbBlockTableRecord
  2
*Model_Space
340
22
  0
BLOCK_RECORD
  5
1B
330
1
100
AcDbSymbolTableRecord
100
AcDbBlockTableRecord
  2
*Paper_Space
340
1E
  0
BLOCK_RECORD
  5
23
330
1
100
AcDbSymbolTableRecord
100
AcDbBlockTableRecord
  2
*Paper_Space0
340
26
  0
ENDTAB
  0
ENDSEC
  0
SECTION
  2
BLOCKS
  0
BLOCK
  5
20
330
1F
100
AcDbEntity
  8
0
100
AcDbBlockBegin
  2
*Model_Space
 70
     0
 10
0.0
 20
0.0
 30
0.0
  3
*Model_Space
  1

  0
ENDBLK
  5
21
330
1F
100
AcDbEntity
  8
0
100
AcDbBlockEnd
  0
BLOCK
  5
1C
330
1B
100
AcDbEntity
 67
     1
  8
0
100
AcDbBlockBegin
  2
*Paper_Space
 70
     0
 10
0.0
 20
0.0
 30
0.0
  3
*Paper_Space
  1

  0
ENDBLK
  5
1D
330
1B
100
AcDbEntity
 67
     1
  8
0
100
AcDbBlockEnd
  0
BLOCK
  5
24
330
23
100
AcDbEntity
  8
0
100
AcDbBlockBegin
  2
*Paper_Space0
 70
     0
 10
0.0
 20
0.0
 30
0.0
  3
*Paper_Space0
  1

  0
ENDBLK
  5
25
330
23
100
AcDbEntity
  8
0
100
AcDbBlockEnd
  0
ENDSEC
  0
SECTION
  2
ENTITIES
  0
POLYLINE
  5
3C
330
1F
100
AcDbEntity
  8
BASE
100
AcDbPolyFaceMesh
 66
     1
 10
0.0
 20
0.0
 30
0.0
 70
    64
 71
    10
 72
     4
  0
VERTEX
  5
3D
330
3C
100
AcDbEntity
  8
BASE
100
AcDbVertex
100
AcDbPolyFaceMeshVertex
 10
29.31155395507812
 20
-20.48552513122559
 30
45.38037490844727
 70
   192
  0
VERTEX
  5
3E
330
3C
100
AcDbEntity
  8
BASE
100
AcDbVertex
100
AcDbPolyFaceMeshVertex
 10
29.06926536560059
 20
-21.13962173461914
 30
45.38037490844727
 70
   192
  0
VERTEX
  5
3F
330
3C
100
AcDbEntity
  8
BASE
100
AcDbVertex
100
AcDbPolyFaceMeshVertex
 10
28.43008041381836
 20
-21.41888999938965
 30
45.38037490844727
 70
   192
  0
VERTEX
  5
40
330
3C
100
AcDbEntity
  8
BASE
100
AcDbVertex
100
AcDbPolyFaceMeshVertex
 10
27.7855224609375
 20
-21.15227127075195
 30
45.38037490844727
 70
   192
  0
VERTEX
  5
41
330
3C
100
AcDbEntity
  8
BASE
100
AcDbVertex
100
AcDbPolyFaceMeshVertex
 10
27.53039169311523
 20
-20.50307464599609
 30
45.38037490844727
 70
   192
  0
VERTEX
  5
42
330
3C
100
AcDbEntity
  8
BASE
100
AcDbVertex
100
AcDbPolyFaceMeshVertex
 10
29.31155395507812
 20
-20.48552513122559
 30
175.0065460205078
 70
   192
  0
VERTEX
  5
43
330
3C
100
AcDbEntity
  8
BASE
100
AcDbVertex
100
AcDbPolyFaceMeshVertex
 10
29.06926536560059
 20
-21.13962173461914
 30
175.0065460205078
 70
   192
  0
VERTEX
  5
44
330
3C
100
AcDbEntity
  8
BASE
100
AcDbVertex
100
AcDbPolyFaceMeshVertex
 10
28.43008041381836
 20
-21.41888999938965
 30
175.0065460205078
 70
   192
  0
VERTEX
  5
45
330
3C
100
AcDbEntity
  8
BASE
100
AcDbVertex
100
AcDbPolyFaceMeshVertex
 10
27.7855224609375
 20
-21.15227127075195
 30
175.0065460205078
 70
   192
  0
VERTEX
  5
46
330
3C
100
AcDbEntity
  8
BASE
100
AcDbVertex
100
AcDbPolyFaceMeshVertex
 10
27.53039169311523
 20
-20.50307464599609
 30
175.0065460205078
 70
   192
  0
VERTEX
  5
47
330
3C
100
AcDbEntity
  8
BASE
100
AcDbFaceRecord
 10
0.0
 20
0.0
 30
0.0
 70
   128
 71
     1
 72
     2
 73
     7
 74
     6
  0
VERTEX
  5
48
330
3C
100
AcDbEntity
  8
BASE
100
AcDbFaceRecord
 10
0.0
 20
0.0
 30
0.0
 70
   128
 71
     2
 72
     3
 73
     8
 74
     7
  0
VERTEX
  5
49
330
3C
100
AcDbEntity
  8
BASE
100
AcDbFaceRecord
 10
0.0
 20
0.0
 30
0.0
 70
   128
 71
     3
 72
     4
 73
     9
 74
     8
  0
VERTEX
  5
4A
330
3C
100
AcDbEntity
  8
BASE
100
AcDbFaceRecord
 10
0.0
 20
0.0
 30
0.0
 70
   128
 71
     4
 72
     5
 73
    10
 74
     9
  0
SEQEND
  5
4B
330
3C
100
AcDbEntity
  8
BASE
  0
POLYLINE
  5
4C
330
1F
100
AcDbEntity
  8
BASE
100
AcDbPolyFaceMesh
 66
     1
 10
0.0
 20
0.0
 30
0.0
 70
    64
 71
    10
 72
     4
  0
VERTEX
  5
4D
330
4C
100
AcDbEntity
  8
BASE
100
AcDbVertex
100
AcDbPolyFaceMeshVertex
 10
30.91585350036621
 20
-17.70679473876953
 30
45.38037490844727
 70
   192
  0
VERTEX
  5
4E
330
4C
100
AcDbEntity
  8
BASE
100
AcDbVertex
100
AcDbPolyFaceMeshVertex
 10
31.36117553710938
 20
-17.16991806030273
 30
45.38037490844727
 70
   192
  0
VERTEX
  5
4F
330
4C
100
AcDbEntity
  8
BASE
100
AcDbVertex
100
AcDbPolyFaceMeshVertex
 10
31.2834358215332
 20
-16.47673606872559
 30
45.38037490844727
 70
   192
  0
VERTEX
  5
50
330
4C
100
AcDbEntity
  8
BASE
100
AcDbVertex
100
AcDbPolyFaceMeshVertex
 10
30.73025512695312
 20
-16.05183982849121
 30
45.38037490844727
 70
   192
  0
VERTEX
  5
51
330
4C
100
AcDbEntity
  8
BASE
100
AcDbVertex
100
AcDbPolyFaceMeshVertex
 10
30.04047203063965
 20
-16.15549087524414
 30
45.38037490844727
 70
   192
  0
VERTEX
  5
52
330
4C
100
AcDbEntity
  8
BASE
100
AcDbVertex
100
AcDbPolyFaceMeshVertex
 10
30.91585350036621
 20
-17.70679473876953
 30
175.0065460205078
 70
   192
  0
VERTEX
  5
53
330
4C
100
AcDbEntity
  8
BASE
100
AcDbVertex
100
AcDbPolyFaceMeshVertex
 10
31.36117553710938
 20
-17.16991806030273
 30
175.0065460205078
 70
   192
  0
VERTEX
  5
54
330
4C
100
AcDbEntity
  8
BASE
100
AcDbVertex
100
AcDbPolyFaceMeshVertex
 10
31.2834358215332
 20
-16.47673606872559
 30
175.0065460205078
 70
   192
  0
VERTEX
  5
55
330
4C
100
AcDbEntity
  8
BASE
100
AcDbVertex
100
AcDbPolyFaceMeshVertex
 10
30.73025512695312
 20
-16.05183982849121
 30
175.0065460205078
 70
   192
  0
VERTEX
  5
56
330
4C
100
AcDbEntity
  8
BASE
100
AcDbVertex
100
AcDbPolyFaceMeshVertex
 10
30.04047203063965
 20
-16.15549087524414
 30
175.0065460205078
 70
   192
  0
VERTEX
  5
57
330
4C
100
AcDbEntity
  8
BASE
100
AcDbFaceRecord
 10
0.0
 20
0.0
 30
0.0
 70
   128
 71
     1
 72
     2
 73
     7
 74
     6
  0
VERTEX
  5
58
330
4C
100
AcDbEntity
  8
BASE
100
AcDbFaceRecord
 10
0.0
 20
0.0
 30
0.0
 70
   128
 71
     2
 72
     3
 73
     8
 74
     7
  0
VERTEX
  5
59
330
4C
100
AcDbEntity
  8
BASE
100
AcDbFaceRecord
 10
0.0
 20
0.0
 30
0.0
 70
   128
 71
     3
 72
     4
 73
     9
 74
     8
  0
VERTEX
  5
5A
330
4C
100
AcDbEntity
  8
BASE
100
AcDbFaceRecord
 10
0.0
 20
0.0
 30
0.0
 70
   128
 71
     4
 72
     5
 73
    10
 74
     9
  0
SEQEND
  5
5B
330
4C
100
AcDbEntity
  8
BASE
  0
POLYLINE
  5
5C
330
1F
100
AcDbEntity
  8
BASE
100
AcDbPolyFaceMesh
 66
     1
 10
0.0
 20
0.0
 30
0.0
 70
    64
 71
    10
 72
     4
  0
VERTEX
  5
5D
330
5C
100
AcDbEntity
  8
BASE
100
AcDbVertex
100
AcDbPolyFaceMeshVertex
 10
25.95328903198242
 20
-17.70679473876953
 30
45.38037490844727
 70
   192
  0
VERTEX
  5
5E
330
5C
100
AcDbEntity
  8
BASE
100
AcDbVertex
100
AcDbPolyFaceMeshVertex
 10
25.50797080993652
 20
-17.16991806030273
 30
45.38037490844727
 70
   192
  0
VERTEX
  5
5F
330
5C
100
AcDbEntity
  8
BASE
100
AcDbVertex
100
AcDbPolyFaceMeshVertex
 10
25.5857105255127
 20
-16.47673606872559
 30
45.38037490844727
 70
   192
  0
VERTEX
  5
60
330
5C
100
AcDbEntity
  8
BASE
100
AcDbVertex
100
AcDbPolyFaceMeshVertex
 10
26.13889122009277
 20
-16.05183982849121
 30
45.38037490844727
 70
   192
  0
VERTEX
  5
61
330
5C
100
AcDbEntity
  8
BASE
100
AcDbVertex
100
AcDbPolyFaceMeshVertex
 10
26.82867431640625
 20
-16.15549087524414
 30
45.38037490844727
 70
   192
  0
VERTEX
  5
62
330
5C
100
AcDbEntity
  8
BASE
100
AcDbVertex
100
AcDbPolyFaceMeshVertex
 10
25.95328903198242
 20
-17.70679473876953
 30
175.0065460205078
 70
   192
  0
VERTEX
  5
63
330
5C
100
AcDbEntity
  8
BASE
100
AcDbVertex
100
AcDbPolyFaceMeshVertex
 10
25.50797080993652
 20
-17.16991806030273
 30
175.0065460205078
 70
   192
  0
VERTEX
  5
64
330
5C
100
AcDbEntity
  8
BASE
100
AcDbVertex
100
AcDbPolyFaceMeshVertex
 10
25.5857105255127
 20
-16.47673606872559
 30
175.0065460205078
 70
   192
  0
VERTEX
  5
65
330
5C
100
AcDbEntity
  8
BASE
100
AcDbVertex
100
AcDbPolyFaceMeshVertex
 10
26.13889122009277
 20
-16.05183982849121
 30
175.0065460205078
 70
   192
  0
VERTEX
  5
66
330
5C
100
AcDbEntity
  8
BASE
100
AcDbVertex
100
AcDbPolyFaceMeshVertex
 10
26.82867431640625
 20
-16.15549087524414
 30
175.0065460205078
 70
   192
  0
VERTEX
  5
67
330
5C
100
AcDbEntity
  8
BASE
100
AcDbFaceRecord
 10
0.0
 20
0.0
 30
0.0
 70
   128
 71
     1
 72
     2
 73
     7
 74
     6
  0
VERTEX
  5
68
330
5C
100
AcDbEntity
  8
BASE
100
AcDbFaceRecord
 10
0.0
 20
0.0
 30
0.0
 70
   128
 71
     2
 72
     3
 73
     8
 74
     7
  0
VERTEX
  5
69
330
5C
100
AcDbEntity
  8
BASE
100
AcDbFaceRecord
 10
0.0
 20
0.0
 30
0.0
 70
   128
 71
     3
 72
     4
 73
     9
 74
     8
  0
VERTEX
  5
6A
330
5C
100
AcDbEntity
  8
BASE
100
AcDbFaceRecord
 10
0.0
 20
0.0
 30
0.0
 70
   128
 71
     4
 72
     5
 73
    10
 74
     9
  0
SEQEND
  5
6B
330
5C
100
AcDbEntity
  8
BASE
  0
POLYLINE
  5
6C
330
1F
100
AcDbEntity
  8
BASE
100
AcDbPolyFaceMesh
 66
     1
 10
0.0
 20
0.0
 30
0.0
 70
    64
 71
    30
 72
    20
  0
VERTEX
  5
6D
330
6C
100
AcDbEntity
  8
BASE
100
AcDbVertex
100
AcDbPolyFaceMeshVertex
 10
27.53039169311523
 20
-20.50307464599609
 30
45.38037490844727
 70
   192
  0
VERTEX
  5
6E
330
6C
100
AcDbEntity
  8
BASE
100
AcDbVertex
100
AcDbPolyFaceMeshVertex
 10
27.53039169311523
 20
-20.71731185913086
 30
43.90400314331055
 70
   192
  0
VERTEX
  5
6F
330
6C
100
AcDbEntity
  8
BASE
100
AcDbVertex
100
AcDbPolyFaceMeshVertex
 10
27.53039169311523
 20
-21.07461166381836
 30
42.45558929443359
 70
   192
  0
VERTEX
  5
70
330
6C
100
AcDbEntity
  8
BASE
100
AcDbVertex
100
AcDbPolyFaceMeshVertex
 10
27.53039169311523
 20
-21.57155990600586
 30
41.0489616394043
 70
   192
  0
VERTEX
  5
71
330
6C
100
AcDbEntity
  8
BASE
100
AcDbVertex
100
AcDbPolyFaceMeshVertex
 10
27.53039169311523
 20
-22.20341873168945
 30
39.69754791259766
 70
   192
  0
VERTEX
  5
72
330
6C
100
AcDbEntity
  8
BASE
100
AcDbVertex
100
AcDbPolyFaceMeshVertex
 10
27.53039169311523
 20
-22.96414756774902
 30
38.41424942016602
 70
   192
  0
VERTEX
  5
73
330
6C
100
AcDbEntity
  8
BASE
100
AcDbVertex
100
AcDbPolyFaceMeshVertex
 10
27.78995323181152
 20
-21.15686225891113
 30
45.38037490844727
 70
   192
  0
VERTEX
  5
74
330
6C
100
AcDbEntity
  8
BASE
100
AcDbVertex
100
AcDbPolyFaceMeshVertex
 10
27.79062843322754
 20
-21.33976364135742
 30
43.9874267578125
 70
   192
  0
VERTEX
  5
75
330
6C
100
AcDbEntity
  8
BASE
100
AcDbVertex
100
AcDbPolyFaceMeshVertex
 10
27.79130554199219
 20
-21.66572952270508
 30
42.62244415283203
 70
   192
  0
VERTEX
  5
76
330
6C
100
AcDbEntity
  8
BASE
100
AcDbVertex
100
AcDbPolyFaceMeshVertex
 10
27.79198265075684
 20
-22.13135147094727
 30
41.29925155639648
 70
   192
  0
VERTEX
  5
77
330
6C
100
AcDbEntity
  8
BASE
100
AcDbVertex
100
AcDbPolyFaceMeshVertex
 10
27.79265785217285
 20
-22.73188209533691
 30
40.03127288818359
 70
   192
  0
VERTEX
  5
78
330
6C
100
AcDbEntity
  8
BASE
100
AcDbVertex
100
AcDbPolyFaceMeshVertex
 10
27.7933349609375
 20
-23.46129417419434
 30
38.83140563964844
 70
   192
  0
VERTEX
  5
79
330
6C
100
AcDbEntity
  8
BASE
100
AcDbVertex
100
AcDbPolyFaceMeshVertex
 10
28.43008041381836
 20
-21.41888999938965
 30
45.38037490844727
 70
   192
  0
VERTEX
  5
7A
330
6C
100
AcDbEntity
  8
BASE
100
AcDbVertex
100
AcDbPolyFaceMeshVertex
 10
28.43008804321289
 20
-21.59072494506836
 30
44.02210998535156
 70
   192
  0
VERTEX
  5
7B
330
6C
100
AcDbEntity
  8
BASE
100
AcDbVertex
100
AcDbPolyFaceMeshVertex
 10
28.43009376525879
 20
-21.90562629699707
 30
42.69182205200195
 70
   192
  0
VERTEX
  5
7C
330
6C
100
AcDbEntity
  8
BASE
100
AcDbVertex
100
AcDbPolyFaceMeshVertex
 10
28.43009948730469
 20
-22.36018371582031
 30
41.40332794189453
 70
   192
  0
VERTEX
  5
7D
330
6C
100
AcDbEntity
  8
BASE
100
AcDbVertex
100
AcDbPolyFaceMeshVertex
 10
28.43010520935059
 20
-22.94965744018555
 30
40.17004013061523
 70
   192
  0
VERTEX
  5
7E
330
6C
100
AcDbEntity
  8
BASE
100
AcDbVertex
100
AcDbPolyFaceMeshVertex
 10
28.43011093139648
 20
-23.66801834106445
 30
39.00486755371094
 70
   192
  0
VERTEX
  5
7F
330
6C
100
AcDbEntity
  8
BASE
100
AcDbVertex
100
AcDbPolyFaceMeshVertex
 10
29.06492614746094
 20
-21.14430046081543
 30
45.38037490844727
 70
   192
  0
VERTEX
  5
80
330
6C
100
AcDbEntity
  8
BASE
100
AcDbVertex
100
AcDbPolyFaceMeshVertex
 10
29.06422996520996
 20
-21.32778549194336
 30
43.98580169677734
 70
   192
  0
VERTEX
  5
81
330
6C
100
AcDbEntity
  8
BASE
100
AcDbVertex
100
AcDbPolyFaceMeshVertex
 10
29.06353378295898
 20
-21.65434074401855
 30
42.61921691894531
 70
   192
  0
VERTEX
  5
82
330
6C
100
AcDbEntity
  8
BASE
100
AcDbVertex
100
AcDbPolyFaceMeshVertex
 10
29.06283950805664
 20
-22.12055587768555
 30
41.29442596435547
 70
   192
  0
VERTEX
  5
83
330
6C
100
AcDbEntity
  8
BASE
100
AcDbVertex
100
AcDbPolyFaceMeshVertex
 10
29.0621452331543
 20
-22.72169303894043
 30
40.02484893798828
 70
   192
  0
VERTEX
  5
84
330
6C
100
AcDbEntity
  8
BASE
100
AcDbVertex
100
AcDbPolyFaceMeshVertex
 10
29.06145095825195
 20
-23.45172500610352
 30
38.82337188720703
 70
   192
  0
VERTEX
  5
85
330
6C
100
AcDbEntity
  8
BASE
100
AcDbVertex
100
AcDbPolyFaceMeshVertex
 10
29.31155395507812
 20
-20.48552513122559
 30
45.38037490844727
 70
   192
  0
VERTEX
  5
86
330
6C
100
AcDbEntity
  8
BASE
100
AcDbVertex
100
AcDbPolyFaceMeshVertex
 10
29.31155395507812
 20
-20.7005558013916
 30
43.90171051025391
 70
   192
  0
VERTEX
  5
87
330
6C
100
AcDbEntity
  8
BASE
100
AcDbVertex
100
AcDbPolyFaceMeshVertex
 10
29.31155395507812
 20
-21.05865859985352
 30
42.45104217529297
 70
   192
  0
VERTEX
  5
88
330
6C
100
AcDbEntity
  8
BASE
100
AcDbVertex
100
AcDbPolyFaceMeshVertex
 10
29.31155395507812
 20
-21.55642318725586
 30
41.04217910766602
 70
   192
  0
VERTEX
  5
89
330
6C
100
AcDbEntity
  8
BASE
100
AcDbVertex
100
AcDbPolyFaceMeshVertex
 10
29.31155395507812
 20
-22.18911361694336
 30
39.68852615356445
 70
   192
  0
VERTEX
  5
8A
330
6C
100
AcDbEntity
  8
BASE
100
AcDbVertex
100
AcDbPolyFaceMeshVertex
 10
29.31155395507812
 20
-22.95070457458496
 30
38.40296936035156
 70
   192
  0
VERTEX
  5
8B
330
6C
100
AcDbEntity
  8
BASE
100
AcDbFaceRecord
 10
0.0
 20
0.0
 30
0.0
 70
   128
 71
     1
 72
     2
 73
     8
 74
     7
  0
VERTEX
  5
8C
330
6C
100
AcDbEntity
  8
BASE
100
AcDbFaceRecord
 10
0.0
 20
0.0
 30
0.0
 70
   128
 71
     2
 72
     3
 73
     9
 74
     8
  0
VERTEX
  5
8D
330
6C
100
AcDbEntity
  8
BASE
100
AcDbFaceRecord
 10
0.0
 20
0.0
 30
0.0
 70
   128
 71
     3
 72
     4
 73
    10
 74
     9
  0
VERTEX
  5
8E
330
6C
100
AcDbEntity
  8
BASE
100
AcDbFaceRecord
 10
0.0
 20
0.0
 30
0.0
 70
   128
 71
     4
 72
     5
 73
    11
 74
    10
  0
VERTEX
  5
8F
330
6C
100
AcDbEntity
  8
BASE
100
AcDbFaceRecord
 10
0.0
 20
0.0
 30
0.0
 70
   128
 71
     5
 72
     6
 73
    12
 74
    11
  0
VERTEX
  5
90
330
6C
100
AcDbEntity
  8
BASE
100
AcDbFaceRecord
 10
0.0
 20
0.0
 30
0.0
 70
   128
 71
     7
 72
     8
 73
    14
 74
    13
  0
VERTEX
  5
91
330
6C
100
AcDbEntity
  8
BASE
100
AcDbFaceRecord
 10
0.0
 20
0.0
 30
0.0
 70
   128
 71
     8
 72
     9
 73
    15
 74
    14
  0
VERTEX
  5
92
330
6C
100
AcDbEntity
  8
BASE
100
AcDbFaceRecord
 10
0.0
 20
0.0
 30
0.0
 70
   128
 71
     9
 72
    10
 73
    16
 74
    15
  0
VERTEX
  5
93
330
6C
100
AcDbEntity
  8
BASE
100
AcDbFaceRecord
 10
0.0
 20
0.0
 30
0.0
 70
   128
 71
    10
 72
    11
 73
    17
 74
    16
  0
VERTEX
  5
94
330
6C
100
AcDbEntity
  8
BASE
100
AcDbFaceRecord
 10
0.0
 20
0.0
 30
0.0
 70
   128
 71
    11
 72
    12
 73
    18
 74
    17
  0
VERTEX
  5
95
330
6C
100
AcDbEntity
  8
BASE
100
AcDbFaceRecord
 10
0.0
 20
0.0
 30
0.0
 70
   128
 71
    13
 72
    14
 73
    20
 74
    19
  0
VERTEX
  5
96
330
6C
100
AcDbEntity
  8
BASE
100
AcDbFaceRecord
 10
0.0
 20
0.0
 30
0.0
 70
   128
 71
    14
 72
    15
 73
    21
 74
    20
  0
VERTEX
  5
97
330
6C
100
AcDbEntity
  8
BASE
100
AcDbFaceRecord
 10
0.0
 20
0.0
 30
0.0
 70
   128
 71
    15
 72
    16
 73
    22
 74
    21
  0
VERTEX
  5
98
330
6C
100
AcDbEntity
  8
BASE
100
AcDbFaceRecord
 10
0.0
 20
0.0
 30
0.0
 70
   128
 71
    16
 72
    17
 73
    23
 74
    22
  0
VERTEX
  5
99
330
6C
100
AcDbEntity
  8
BASE
100
AcDbFaceRecord
 10
0.0
 20
0.0
 30
0.0
 70
   128
 71
    17
 72
    18
 73
    24
 74
    23
  0
VERTEX
  5
9A
330
6C
100
AcDbEntity
  8
BASE
100
AcDbFaceRecord
 10
0.0
 20
0.0
 30
0.0
 70
   128
 71
    19
 72
    20
 73
    26
 74
    25
  0
VERTEX
  5
9B
330
6C
100
AcDbEntity
  8
BASE
100
AcDbFaceRecord
 10
0.0
 20
0.0
 30
0.0
 70
   128
 71
    20
 72
    21
 73
    27
 74
    26
  0
VERTEX
  5
9C
330
6C
100
AcDbEntity
  8
BASE
100
AcDbFaceRecord
 10
0.0
 20
0.0
 30
0.0
 70
   128
 71
    21
 72
    22
 73
    28
 74
    27
  0
VERTEX
  5
9D
330
6C
100
AcDbEntity
  8
BASE
100
AcDbFaceRecord
 10
0.0
 20
0.0
 30
0.0
 70
   128
 71
    22
 72
    23
 73
    29
 74
    28
  0
VERTEX
  5
9E
330
6C
100
AcDbEntity
  8
BASE
100
AcDbFaceRecord
 10
0.0
 20
0.0
 30
0.0
 70
   128
 71
    23
 72
    24
 73
    30
 74
    29
  0
SEQEND
  5
9F
330
6C
100
AcDbEntity
  8
BASE
  0
POLYLINE
  5
A0
330
1F
100
AcDbEntity
  8
BASE
100
AcDbPolyFaceMesh
 66
     1
 10
0.0
 20
0.0
 30
0.0
 70
    64
 71
    10
 72
     4
  0
VERTEX
  5
A1
330
A0
100
AcDbEntity
  8
BASE
100
AcDbVertex
100
AcDbPolyFaceMeshVertex
 10
27.53039169311523
 20
-22.96414756774902
 30
38.41424942016602
 70
   192
  0
VERTEX
  5
A2
330
A0
100
AcDbEntity
  8
BASE
100
AcDbVertex
100
AcDbPolyFaceMeshVertex
 10
27.7933349609375
 20
-23.46129417419434
 30
38.83140563964844
 70
   192
  0
VERTEX
  5
A3
330
A0
100
AcDbEntity
  8
BASE
100
AcDbVertex
100
AcDbPolyFaceMeshVertex
 10
28.43011093139648
 20
-23.66801834106445
 30
39.00486755371094
 70
   192
  0
VERTEX
  5
A4
330
A0
100
AcDbEntity
  8
BASE
100
AcDbVertex
100
AcDbPolyFaceMeshVertex
 10
29.06145095825195
 20
-23.45172500610352
 30
38.82337188720703
 70
   192
  0
VERTEX
  5
A5
330
A0
100
AcDbEntity
  8
BASE
100
AcDbVertex
100
AcDbPolyFaceMeshVertex
 10
29.31155395507812
 20
-22.95070457458496
 30
38.40296936035156
 70
   192
  0
VERTEX
  5
A6
330
A0
100
AcDbEntity
  8
BASE
100
AcDbVertex
100
AcDbPolyFaceMeshVertex
 10
27.53039169311523
 20
-49.64021301269531
 30
0.0146171180531383
 70
   192
  0
VERTEX
  5
A7
330
A0
100
AcDbEntity
  8
BASE
100
AcDbVertex
100
AcDbPolyFaceMeshVertex
 10
27.78995323181152
 20
-50.29397583007812
 30
0.0203637480735779
 70
   192
  0
VERTEX
  5
A8
330
A0
100
AcDbEntity
  8
BASE
100
AcDbVertex
100
AcDbPolyFaceMeshVertex
 10
28.43008041381836
 20
-50.55599212646484
 30
0.0226669199764729
 70
   192
  0
VERTEX
  5
A9
330
A0
100
AcDbEntity
  8
BASE
100
AcDbVertex
100
AcDbPolyFaceMeshVertex
 10
29.06492614746094
 20
-50.28141403198242
 30
0.0202533360570669
 70
   192
  0
VERTEX
  5
AA
330
A0
100
AcDbEntity
  8
BASE
100
AcDbVertex
100
AcDbPolyFaceMeshVertex
 10
29.31155395507812
 20
-49.62266540527344
 30
0.0144628714770079
 70
   192
  0
VERTEX
  5
AB
330
A0
100
AcDbEntity
  8
BASE
100
AcDbFaceRecord
 10
0.0
 20
0.0
 30
0.0
 70
   128
 71
     1
 72
     2
 73
     7
 74
     6
  0
VERTEX
  5
AC
330
A0
100
AcDbEntity
  8
BASE
100
AcDbFaceRecord
 10
0.0
 20
0.0
 30
0.0
 70
   128
 71
     2
 72
     3
 73
     8
 74
     7
  0
VERTEX
  5
AD
330
A0
100
AcDbEntity
  8
BASE
100
AcDbFaceRecord
 10
0.0
 20
0.0
 30
0.0
 70
   128
 71
     3
 72
     4
 73
     9
 74
     8
  0
VERTEX
  5
AE
330
A0
100
AcDbEntity
  8
BASE
100
AcDbFaceRecord
 10
0.0
 20
0.0
 30
0.0
 70
   128
 71
     4
 72
     5
 73
    10
 74
     9
  0
SEQEND
  5
AF
330
A0
100
AcDbEntity
  8
BASE
  0
POLYLINE
  5
B0
330
1F
100
AcDbEntity
  8
BASE
100
AcDbPolyFaceMesh
 66
     1
 10
0.0
 20
0.0
 30
0.0
 70
    64
 71
    30
 72
    20
  0
VERTEX
  5
B1
330
B0
100
AcDbEntity
  8
BASE
100
AcDbVertex
100
AcDbPolyFaceMeshVertex
 10
26.89513778686523
 20
-16.13071060180664
 30
45.38037490844727
 70
   192
  0
VERTEX
  5
B2
330
B0
100
AcDbEntity
  8
BASE
100
AcDbVertex
100
AcDbPolyFaceMeshVertex
 10
26.71360397338867
 20
-16.01694679260254
 30
43.90400314331055
 70
   192
  0
VERTEX
  5
B3
330
B0
100
AcDbEntity
  8
BASE
100
AcDbVertex
100
AcDbPolyFaceMeshVertex
 10
26.41084289550781
 20
-15.8272123336792
 30
42.45558929443359
 70
   192
  0
VERTEX
  5
B4
330
B0
100
AcDbEntity
  8
BASE
100
AcDbVertex
100
AcDbPolyFaceMeshVertex
 10
25.98974990844727
 20
-15.56332111358643
 30
41.0489616394043
 70
   192
  0
VERTEX
  5
B5
330
B0
100
AcDbEntity
  8
BASE
100
AcDbVertex
100
AcDbPolyFaceMeshVertex
 10
25.45434188842773
 20
-15.22779083251953
 30
39.69754791259766
 70
   192
  0
VERTEX
  5
B6
330
B0
100
AcDbEntity
  8
BASE
100
AcDbVertex
100
AcDbPolyFaceMeshVertex
 10
24.80973052978516
 20
-14.82382678985596
 30
38.41424942016602
 70
   192
  0
VERTEX
  5
B7
330
B0
100
AcDbEntity
  8
BASE
100
AcDbVertex
100
AcDbPolyFaceMeshVertex
 10
26.20331764221191
 20
-16.00347518920898
 30
45.38037490844727
 70
   192
  0
VERTEX
  5
B8
330
B0
100
AcDbEntity
  8
BASE
100
AcDbVertex
100
AcDbPolyFaceMeshVertex
 10
26.0479736328125
 20
-15.9069242477417
 30
43.9874267578125
 70
   192
  0
VERTEX
  5
B9
330
B0
100
AcDbEntity
  8
BASE
100
AcDbVertex
100
AcDbPolyFaceMeshVertex
 10
25.77140426635742
 20
-15.73440074920654
 30
42.62244415283203
 70
   192
  0
VERTEX
  5
BA
330
B0
100
AcDbEntity
  8
BASE
100
AcDbVertex
100
AcDbPolyFaceMeshVertex
 10
25.37649726867676
 20
-15.48771953582764
 30
41.29925155639648
 70
   192
  0
VERTEX
  5
BB
330
B0
100
AcDbEntity
  8
BASE
100
AcDbVertex
100
AcDbPolyFaceMeshVertex
 10
24.86727333068848
 20
-15.16939735412598
 30
40.03127288818359
 70
   192
  0
VERTEX
  5
BC
330
B0
100
AcDbEntity
  8
BASE
100
AcDbVertex
100
AcDbPolyFaceMeshVertex
 10
24.24884033203125
 20
-14.78263568878174
 30
38.83140563964844
 70
   192
  0
VERTEX
  5
BD
330
B0
100
AcDbEntity
  8
BASE
100
AcDbVertex
100
AcDbPolyFaceMeshVertex
 10
25.64136123657227
 20
-16.40675163269043
 30
45.38037490844727
 70
   192
  0
VERTEX
  5
BE
330
B0
100
AcDbEntity
  8
BASE
100
AcDbVertex
100
AcDbPolyFaceMeshVertex
 10
25.49575233459473
 20
-16.31550979614258
 30
44.02210998535156
 70
   192
  0
VERTEX
  5
BF
330
B0
100
AcDbEntity
  8
BASE
100
AcDbVertex
100
AcDbPolyFaceMeshVertex
 10
25.22891616821289
 20
-16.14829444885254
 30
42.69182205200195
 70
   192
  0
VERTEX
  5
C0
330
B0
100
AcDbEntity
  8
BASE
100
AcDbVertex
100
AcDbPolyFaceMeshVertex
 10
24.8437385559082
 20
-15.90691947937012
 30
41.40332794189453
 70
   192
  0
VERTEX
  5
C1
330
B0
100
AcDbEntity
  8
BASE
100
AcDbVertex
100
AcDbPolyFaceMeshVertex
 10
24.34424209594727
 20
-15.59390068054199
 30
40.17004013061523
 70
   192
  0
VERTEX
  5
C2
330
B0
100
AcDbEntity
  8
BASE
100
AcDbVertex
100
AcDbPolyFaceMeshVertex
 10
23.73552894592285
 20
-15.21243858337402
 30
39.00486755371094
 70
   192
  0
VERTEX
  5
C3
330
B0
100
AcDbEntity
  8
BASE
100
AcDbVertex
100
AcDbPolyFaceMeshVertex
 10
25.53692245483398
 20
-17.09050369262695
 30
45.38037490844727
 70
   192
  0
VERTEX
  5
C4
330
B0
100
AcDbEntity
  8
BASE
100
AcDbVertex
100
AcDbPolyFaceMeshVertex
 10
25.38181114196777
 20
-16.99248123168945
 30
43.98580169677734
 70
   192
  0
VERTEX
  5
C5
330
B0
100
AcDbEntity
  8
BASE
100
AcDbVertex
100
AcDbPolyFaceMeshVertex
 10
25.10547256469727
 20
-16.81848335266113
 30
42.61921691894531
 70
   192
  0
VERTEX
  5
C6
330
B0
100
AcDbEntity
  8
BASE
100
AcDbVertex
100
AcDbPolyFaceMeshVertex
 10
24.71078872680664
 20
-16.5703239440918
 30
41.29442596435547
 70
   192
  0
VERTEX
  5
C7
330
B0
100
AcDbEntity
  8
BASE
100
AcDbVertex
100
AcDbPolyFaceMeshVertex
 10
24.20178031921387
 20
-16.25051689147949
 30
40.02484893798828
 70
   192
  0
VERTEX
  5
C8
330
B0
100
AcDbEntity
  8
BASE
100
AcDbVertex
100
AcDbPolyFaceMeshVertex
 10
23.58355331420898
 20
-15.86226654052734
 30
38.82337188720703
 70
   192
  0
VERTEX
  5
C9
330
B0
100
AcDbEntity
  8
BASE
100
AcDbVertex
100
AcDbPolyFaceMeshVertex
 10
25.96417236328125
 20
-17.64931106567383
 30
45.38037490844727
 70
   192
  0
VERTEX
  5
CA
330
B0
100
AcDbEntity
  8
BASE
100
AcDbVertex
100
AcDbPolyFaceMeshVertex
 10
25.78196716308594
 20
-17.53512382507324
 30
43.90171051025391
 70
   192
  0
VERTEX
  5
CB
330
B0
100
AcDbEntity
  8
BASE
100
AcDbVertex
100
AcDbPolyFaceMeshVertex
 10
25.4785270690918
 20
-17.3449649810791
 30
42.45104217529297
 70
   192
  0
VERTEX
  5
CC
330
B0
100
AcDbEntity
  8
BASE
100
AcDbVertex
100
AcDbPolyFaceMeshVertex
 10
25.05674171447754
 20
-17.08064079284668
 30
41.04217910766602
 70
   192
  0
VERTEX
  5
CD
330
B0
100
AcDbEntity
  8
BASE
100
AcDbVertex
100
AcDbPolyFaceMeshVertex
 10
24.52062606811523
 20
-16.74466896057129
 30
39.68852615356445
 70
   192
  0
VERTEX
  5
CE
330
B0
100
AcDbEntity
  8
BASE
100
AcDbVertex
100
AcDbPolyFaceMeshVertex
 10
23.87528610229492
 20
-16.34024620056152
 30
38.40296936035156
 70
   192
  0
VERTEX
  5
CF
330
B0
100
AcDbEntity
  8
BASE
100
AcDbFaceRecord
 10
0.0
 20
0.0
 30
0.0
 70
   128
 71
     1
 72
     2
 73
     8
 74
     7
  0
VERTEX
  5
D0
330
B0
100
AcDbEntity
  8
BASE
100
AcDbFaceRecord
 10
0.0
 20
0.0
 30
0.0
 70
   128
 71
     2
 72
     3
 73
     9
 74
     8
  0
VERTEX
  5
D1
330
B0
100
AcDbEntity
  8
BASE
100
AcDbFaceRecord
 10
0.0
 20
0.0
 30
0.0
 70
   128
 71
     3
 72
     4
 73
    10
 74
     9
  0
VERTEX
  5
D2
330
B0
100
AcDbEntity
  8
BASE
100
AcDbFaceRecord
 10
0.0
 20
0.0
 30
0.0
 70
   128
 71
     4
 72
     5
 73
    11
 74
    10
  0
VERTEX
  5
D3
330
B0
100
AcDbEntity
  8
BASE
100
AcDbFaceRecord
 10
0.0
 20
0.0
 30
0.0
 70
   128
 71
     5
 72
     6
 73
    12
 74
    11
  0
VERTEX
  5
D4
330
B0
100
AcDbEntity
  8
BASE
100
AcDbFaceRecord
 10
0.0
 20
0.0
 30
0.0
 70
   128
 71
     7
 72
     8
 73
    14
 74
    13
  0
VERTEX
  5
D5
330
B0
100
AcDbEntity
  8
BASE
100
AcDbFaceRecord
 10
0.0
 20
0.0
 30
0.0
 70
   128
 71
     8
 72
     9
 73
    15
 74
    14
  0
VERTEX
  5
D6
330
B0
100
AcDbEntity
  8
BASE
100
AcDbFaceRecord
 10
0.0
 20
0.0
 30
0.0
 70
   128
 71
     9
 72
    10
 73
    16
 74
    15
  0
VERTEX
  5
D7
330
B0
100
AcDbEntity
  8
BASE
100
AcDbFaceRecord
 10
0.0
 20
0.0
 30
0.0
 70
   128
 71
    10
 72
    11
 73
    17
 74
    16
  0
VERTEX
  5
D8
330
B0
100
AcDbEntity
  8
BASE
100
AcDbFaceRecord
 10
0.0
 20
0.0
 30
0.0
 70
   128
 71
    11
 72
    12
 73
    18
 74
    17
  0
VERTEX
  5
D9
330
B0
100
AcDbEntity
  8
BASE
100
AcDbFaceRecord
 10
0.0
 20
0.0
 30
0.0
 70
   128
 71
    13
 72
    14
 73
    20
 74
    19
  0
VERTEX
  5
DA
330
B0
100
AcDbEntity
  8
BASE
100
AcDbFaceRecord
 10
0.0
 20
0.0
 30
0.0
 70
   128
 71
    14
 72
    15
 73
    21
 74
    20
  0
VERTEX
  5
DB
330
B0
100
AcDbEntity
  8
BASE
100
AcDbFaceRecord
 10
0.0
 20
0.0
 30
0.0
 70
   128
 71
    15
 72
    16
 73
    22
 74
    21
  0
VERTEX
  5
DC
330
B0
100
AcDbEntity
  8
BASE
100
AcDbFaceRecord
 10
0.0
 20
0.0
 30
0.0
 70
   128
 71
    16
 72
    17
 73
    23
 74
    22
  0
VERTEX
  5
DD
330
B0
100
AcDbEntity
  8
BASE
100
AcDbFaceRecord
 10
0.0
 20
0.0
 30
0.0
 70
   128
 71
    17
 72
    18
 73
    24
 74
    23
  0
VERTEX
  5
DE
330
B0
100
AcDbEntity
  8
BASE
100
AcDbFaceRecord
 10
0.0
 20
0.0
 30
0.0
 70
   128
 71
    19
 72
    20
 73
    26
 74
    25
  0
VERTEX
  5
DF
330
B0
100
AcDbEntity
  8
BASE
100
AcDbFaceRecord
 10
0.0
 20
0.0
 30
0.0
 70
   128
 71
    20
 72
    21
 73
    27
 74
    26
  0
VERTEX
  5
E0
330
B0
100
AcDbEntity
  8
BASE
100
AcDbFaceRecord
 10
0.0
 20
0.0
 30
0.0
 70
   128
 71
    21
 72
    22
 73
    28
 74
    27
  0
VERTEX
  5
E1
330
B0
100
AcDbEntity
  8
BASE
100
AcDbFaceRecord
 10
0.0
 20
0.0
 30
0.0
 70
   128
 71
    22
 72
    23
 73
    29
 74
    28
  0
VERTEX
  5
E2
330
B0
100
AcDbEntity
  8
BASE
100
AcDbFaceRecord
 10
0.0
 20
0.0
 30
0.0
 70
   128
 71
    23
 72
    24
 73
    30
 74
    29
  0
SEQEND
  5
E3
330
B0
100
AcDbEntity
  8
BASE
  0
POLYLINE
  5
E4
330
1F
100
AcDbEntity
  8
BASE
100
AcDbPolyFaceMesh
 66
     1
 10
0.0
 20
0.0
 30
0.0
 70
    64
 71
    10
 72
     4
  0
VERTEX
  5
E5
330
E4
100
AcDbEntity
  8
BASE
100
AcDbVertex
100
AcDbPolyFaceMeshVertex
 10
24.80973052978516
 20
-14.82382678985596
 30
38.41424942016602
 70
   192
  0
VERTEX
  5
E6
330
E4
100
AcDbEntity
  8
BASE
100
AcDbVertex
100
AcDbPolyFaceMeshVertex
 10
24.24884033203125
 20
-14.78263568878174
 30
38.83140563964844
 70
   192
  0
VERTEX
  5
E7
330
E4
100
AcDbEntity
  8
BASE
100
AcDbVertex
100
AcDbPolyFaceMeshVertex
 10
23.73552894592285
 20
-15.21243858337402
 30
39.00486755371094
 70
   192
  0
VERTEX
  5
E8
330
E4
100
AcDbEntity
  8
BASE
100
AcDbVertex
100
AcDbPolyFaceMeshVertex
 10
23.58355331420898
 20
-15.86226654052734
 30
38.82337188720703
 70
   192
  0
VERTEX
  5
E9
330
E4
100
AcDbEntity
  8
BASE
100
AcDbVertex
100
AcDbPolyFaceMeshVertex
 10
23.87528610229492
 20
-16.34024620056152
 30
38.40296936035156
 70
   192
  0
VERTEX
  5
EA
330
E4
100
AcDbEntity
  8
BASE
100
AcDbVertex
100
AcDbPolyFaceMeshVertex
 10
1.358197212219238
 20
-0.1272211968898773
 30
0.0146171180531383
 70
   192
  0
VERTEX
  5
EB
330
E4
100
AcDbEntity
  8
BASE
100
AcDbVertex
100
AcDbPolyFaceMeshVertex
 10
0.666394829750061
 20
0.0
 30
0.0203637480735779
 70
   192
  0
VERTEX
  5
EC
330
E4
100
AcDbEntity
  8
BASE
100
AcDbVertex
100
AcDbPolyFaceMeshVertex
 10
0.1044483184814453
 20
-0.4032809138298035
 30
0.0226669199764729
 70
   192
  0
VERTEX
  5
ED
330
E4
100
AcDbEntity
  8
BASE
100
AcDbVertex
100
AcDbPolyFaceMeshVertex
 10
0.0
 20
-1.087027549743652
 30
0.0202533360570669
 70
   192
  0
VERTEX
  5
EE
330
E4
100
AcDbEntity
  8
BASE
100
AcDbVertex
100
AcDbPolyFaceMeshVertex
 10
0.4272302091121674
 20
-1.645820379257202
 30
0.0144628714770079
 70
   192
  0
VERTEX
  5
EF
330
E4
100
AcDbEntity
  8
BASE
100
AcDbFaceRecord
 10
0.0
 20
0.0
 30
0.0
 70
   128
 71
     1
 72
     2
 73
     7
 74
     6
  0
VERTEX
  5
F0
330
E4
100
AcDbEntity
  8
BASE
100
AcDbFaceRecord
 10
0.0
 20
0.0
 30
0.0
 70
   128
 71
     2
 72
     3
 73
     8
 74
     7
  0
VERTEX
  5
F1
330
E4
100
AcDbEntity
  8
BASE
100
AcDbFaceRecord
 10
0.0
 20
0.0
 30
0.0
 70
   128
 71
     3
 72
     4
 73
     9
 74
     8
  0
VERTEX
  5
F2
330
E4
100
AcDbEntity
  8
BASE
100
AcDbFaceRecord
 10
0.0
 20
0.0
 30
0.0
 70
   128
 71
     4
 72
     5
 73
    10
 74
     9
  0
SEQEND
  5
F3
330
E4
100
AcDbEntity
  8
BASE
  0
POLYLINE
  5
F4
330
1F
100
AcDbEntity
  8
BASE
100
AcDbPolyFaceMesh
 66
     1
 10
0.0
 20
0.0
 30
0.0
 70
    64
 71
    30
 72
    20
  0
VERTEX
  5
F5
330
F4
100
AcDbEntity
  8
BASE
100
AcDbVertex
100
AcDbPolyFaceMeshVertex
 10
29.9503173828125
 20
-16.13071060180664
 30
45.38037490844727
 70
   192
  0
VERTEX
  5
F6
330
F4
100
AcDbEntity
  8
BASE
100
AcDbVertex
100
AcDbPolyFaceMeshVertex
 10
30.13185119628906
 20
-16.01694679260254
 30
43.90400314331055
 70
   192
  0
VERTEX
  5
F7
330
F4
100
AcDbEntity
  8
BASE
100
AcDbVertex
100
AcDbPolyFaceMeshVertex
 10
30.43461227416992
 20
-15.8272123336792
 30
42.45558929443359
 70
   192
  0
VERTEX
  5
F8
330
F4
100
AcDbEntity
  8
BASE
100
AcDbVertex
100
AcDbPolyFaceMeshVertex
 10
30.8557071685791
 20
-15.56332111358643
 30
41.0489616394043
 70
   192
  0
VERTEX
  5
F9
330
F4
100
AcDbEntity
  8
BASE
100
AcDbVertex
100
AcDbPolyFaceMeshVertex
 10
31.39111709594727
 20
-15.22779083251953
 30
39.69754791259766
 70
   192
  0
VERTEX
  5
FA
330
F4
100
AcDbEntity
  8
BASE
100
AcDbVertex
100
AcDbPolyFaceMeshVertex
 10
32.03572845458984
 20
-14.82382678985596
 30
38.41424942016602
 70
   192
  0
VERTEX
  5
FB
330
F4
100
AcDbEntity
  8
BASE
100
AcDbVertex
100
AcDbPolyFaceMeshVertex
 10
30.64213943481445
 20
-16.00347518920898
 30
45.38037490844727
 70
   192
  0
VERTEX
  5
FC
330
F4
100
AcDbEntity
  8
BASE
100
AcDbVertex
100
AcDbPolyFaceMeshVertex
 10
30.79748153686523
 20
-15.9069242477417
 30
43.9874267578125
 70
   192
  0
VERTEX
  5
FD
330
F4
100
AcDbEntity
  8
BASE
100
AcDbVertex
100
AcDbPolyFaceMeshVertex
 10
31.07405090332031
 20
-15.73440074920654
 30
42.62244415283203
 70
   192
  0
VERTEX
  5
FE
330
F4
100
AcDbEntity
  8
BASE
100
AcDbVertex
100
AcDbPolyFaceMeshVertex
 10
31.46895790100098
 20
-15.48771953582764
 30
41.29925155639648
 70
   192
  0
VERTEX
  5
FF
330
F4
100
AcDbEntity
  8
BASE
100
AcDbVertex
100
AcDbPolyFaceMeshVertex
 10
31.97818374633789
 20
-15.16939735412598
 30
40.03127288818359
 70
   192
  0
VERTEX
  5
100
330
F4
100
AcDbEntity
  8
BASE
100
AcDbVertex
100
AcDbPolyFaceMeshVertex
 10
32.59661483764648
 20
-14.78263568878174
 30
38.83140563964844
 70
   192
  0
VERTEX
  5
101
330
F4
100
AcDbEntity
  8
BASE
100
AcDbVertex
100
AcDbPolyFaceMeshVertex
 10
31.2040958404541
 20
-16.40675163269043
 30
45.38037490844727
 70
   192
  0
VERTEX
  5
102
330
F4
100
AcDbEntity
  8
BASE
100
AcDbVertex
100
AcDbPolyFaceMeshVertex
 10
31.34970474243164
 20
-16.31550979614258
 30
44.02210998535156
 70
   192
  0
VERTEX
  5
103
330
F4
100
AcDbEntity
  8
BASE
100
AcDbVertex
100
AcDbPolyFaceMeshVertex
 10
31.61654090881348
 20
-16.14829444885254
 30
42.69182205200195
 70
   192
  0
VERTEX
  5
104
330
F4
100
AcDbEntity
  8
BASE
100
AcDbVertex
100
AcDbPolyFaceMeshVertex
 10
32.00171661376953
 20
-15.90691947937012
 30
41.40332794189453
 70
   192
  0
VERTEX
  5
105
330
F4
100
AcDbEntity
  8
BASE
100
AcDbVertex
100
AcDbPolyFaceMeshVertex
 10
32.50121307373047
 20
-15.59390068054199
 30
40.17004013061523
 70
   192
  0
VERTEX
  5
106
330
F4
100
AcDbEntity
  8
BASE
100
AcDbVertex
100
AcDbPolyFaceMeshVertex
 10
33.10992813110352
 20
-15.21243858337402
 30
39.00486755371094
 70
   192
  0
VERTEX
  5
107
330
F4
100
AcDbEntity
  8
BASE
100
AcDbVertex
100
AcDbPolyFaceMeshVertex
 10
31.30853652954102
 20
-17.09050369262695
 30
45.38037490844727
 70
   192
  0
VERTEX
  5
108
330
F4
100
AcDbEntity
  8
BASE
100
AcDbVertex
100
AcDbPolyFaceMeshVertex
 10
31.46364402770996
 20
-16.99248123168945
 30
43.98580169677734
 70
   192
  0
VERTEX
  5
109
330
F4
100
AcDbEntity
  8
BASE
100
AcDbVertex
100
AcDbPolyFaceMeshVertex
 10
31.7399845123291
 20
-16.81848335266113
 30
42.61921691894531
 70
   192
  0
VERTEX
  5
10A
330
F4
100
AcDbEntity
  8
BASE
100
AcDbVertex
100
AcDbPolyFaceMeshVertex
 10
32.13466644287109
 20
-16.5703239440918
 30
41.29442596435547
 70
   192
  0
VERTEX
  5
10B
330
F4
100
AcDbEntity
  8
BASE
100
AcDbVertex
100
AcDbPolyFaceMeshVertex
 10
32.64367294311523
 20
-16.25051689147949
 30
40.02484893798828
 70
   192
  0
VERTEX
  5
10C
330
F4
100
AcDbEntity
  8
BASE
100
AcDbVertex
100
AcDbPolyFaceMeshVertex
 10
33.26190185546875
 20
-15.86226654052734
 30
38.82337188720703
 70
   192
  0
VERTEX
  5
10D
330
F4
100
AcDbEntity
  8
BASE
100
AcDbVertex
100
AcDbPolyFaceMeshVertex
 10
30.88128280639648
 20
-17.64931106567383
 30
45.38037490844727
 70
   192
  0
VERTEX
  5
10E
330
F4
100
AcDbEntity
  8
BASE
100
AcDbVertex
100
AcDbPolyFaceMeshVertex
 10
31.0634880065918
 20
-17.53512382507324
 30
43.90171051025391
 70
   192
  0
VERTEX
  5
10F
330
F4
100
AcDbEntity
  8
BASE
100
AcDbVertex
100
AcDbPolyFaceMeshVertex
 10
31.3669319152832
 20
-17.3449649810791
 30
42.45104217529297
 70
   192
  0
VERTEX
  5
110
330
F4
100
AcDbEntity
  8
BASE
100
AcDbVertex
100
AcDbPolyFaceMeshVertex
 10
31.78871536254883
 20
-17.08064079284668
 30
41.04217910766602
 70
   192
  0
VERTEX
  5
111
330
F4
100
AcDbEntity
  8
BASE
100
AcDbVertex
100
AcDbPolyFaceMeshVertex
 10
32.3248291015625
 20
-16.74466896057129
 30
39.68852615356445
 70
   192
  0
VERTEX
  5
112
330
F4
100
AcDbEntity
  8
BASE
100
AcDbVertex
100
AcDbPolyFaceMeshVertex
 10
32.97017288208008
 20
-16.34024620056152
 30
38.40296936035156
 70
   192
  0
VERTEX
  5
113
330
F4
100
AcDbEntity
  8
BASE
100
AcDbFaceRecord
 10
0.0
 20
0.0
 30
0.0
 70
   128
 71
     1
 72
     2
 73
     8
 74
     7
  0
VERTEX
  5
114
330
F4
100
AcDbEntity
  8
BASE
100
AcDbFaceRecord
 10
0.0
 20
0.0
 30
0.0
 70
   128
 71
     2
 72
     3
 73
     9
 74
     8
  0
VERTEX
  5
115
330
F4
100
AcDbEntity
  8
BASE
100
AcDbFaceRecord
 10
0.0
 20
0.0
 30
0.0
 70
   128
 71
     3
 72
     4
 73
    10
 74
     9
  0
VERTEX
  5
116
330
F4
100
AcDbEntity
  8
BASE
100
AcDbFaceRecord
 10
0.0
 20
0.0
 30
0.0
 70
   128
 71
     4
 72
     5
 73
    11
 74
    10
  0
VERTEX
  5
117
330
F4
100
AcDbEntity
  8
BASE
100
AcDbFaceRecord
 10
0.0
 20
0.0
 30
0.0
 70
   128
 71
     5
 72
     6
 73
    12
 74
    11
  0
VERTEX
  5
118
330
F4
100
AcDbEntity
  8
BASE
100
AcDbFaceRecord
 10
0.0
 20
0.0
 30
0.0
 70
   128
 71
     7
 72
     8
 73
    14
 74
    13
  0
VERTEX
  5
119
330
F4
100
AcDbEntity
  8
BASE
100
AcDbFaceRecord
 10
0.0
 20
0.0
 30
0.0
 70
   128
 71
     8
 72
     9
 73
    15
 74
    14
  0
VERTEX
  5
11A
330
F4
100
AcDbEntity
  8
BASE
100
AcDbFaceRecord
 10
0.0
 20
0.0
 30
0.0
 70
   128
 71
     9
 72
    10
 73
    16
 74
    15
  0
VERTEX
  5
11B
330
F4
100
AcDbEntity
  8
BASE
100
AcDbFaceRecord
 10
0.0
 20
0.0
 30
0.0
 70
   128
 71
    10
 72
    11
 73
    17
 74
    16
  0
VERTEX
  5
11C
330
F4
100
AcDbEntity
  8
BASE
100
AcDbFaceRecord
 10
0.0
 20
0.0
 30
0.0
 70
   128
 71
    11
 72
    12
 73
    18
 74
    17
  0
VERTEX
  5
11D
330
F4
100
AcDbEntity
  8
BASE
100
AcDbFaceRecord
 10
0.0
 20
0.0
 30
0.0
 70
   128
 71
    13
 72
    14
 73
    20
 74
    19
  0
VERTEX
  5
11E
330
F4
100
AcDbEntity
  8
BASE
100
AcDbFaceRecord
 10
0.0
 20
0.0
 30
0.0
 70
   128
 71
    14
 72
    15
 73
    21
 74
    20
  0
VERTEX
  5
11F
330
F4
100
AcDbEntity
  8
BASE
100
AcDbFaceRecord
 10
0.0
 20
0.0
 30
0.0
 70
   128
 71
    15
 72
    16
 73
    22
 74
    21
  0
VERTEX
  5
120
330
F4
100
AcDbEntity
  8
BASE
100
AcDbFaceRecord
 10
0.0
 20
0.0
 30
0.0
 70
   128
 71
    16
 72
    17
 73
    23
 74
    22
  0
VERTEX
  5
121
330
F4
100
AcDbEntity
  8
BASE
100
AcDbFaceRecord
 10
0.0
 20
0.0
 30
0.0
 70
   128
 71
    17
 72
    18
 73
    24
 74
    23
  0
VERTEX
  5
122
330
F4
100
AcDbEntity
  8
BASE
100
AcDbFaceRecord
 10
0.0
 20
0.0
 30
0.0
 70
   128
 71
    19
 72
    20
 73
    26
 74
    25
  0
VERTEX
  5
123
330
F4
100
AcDbEntity
  8
BASE
100
AcDbFaceRecord
 10
0.0
 20
0.0
 30
0.0
 70
   128
 71
    20
 72
    21
 73
    27
 74
    26
  0
VERTEX
  5
124
330
F4
100
AcDbEntity
  8
BASE
100
AcDbFaceRecord
 10
0.0
 20
0.0
 30
0.0
 70
   128
 71
    21
 72
    22
 73
    28
 74
    27
  0
VERTEX
  5
125
330
F4
100
AcDbEntity
  8
BASE
100
AcDbFaceRecord
 10
0.0
 20
0.0
 30
0.0
 70
   128
 71
    22
 72
    23
 73
    29
 74
    28
  0
VERTEX
  5
126
330
F4
100
AcDbEntity
  8
BASE
100
AcDbFaceRecord
 10
0.0
 20
0.0
 30
0.0
 70
   128
 71
    23
 72
    24
 73
    30
 74
    29
  0
SEQEND
  5
127
330
F4
100
AcDbEntity
  8
BASE
  0
POLYLINE
  5
128
330
1F
100
AcDbEntity
  8
BASE
100
AcDbPolyFaceMesh
 66
     1
 10
0.0
 20
0.0
 30
0.0
 70
    64
 71
    10
 72
     4
  0
VERTEX
  5
129
330
128
100
AcDbEntity
  8
BASE
100
AcDbVertex
100
AcDbPolyFaceMeshVertex
 10
32.03572845458984
 20
-14.82382678985596
 30
38.41424942016602
 70
   192
  0
VERTEX
  5
12A
330
128
100
AcDbEntity
  8
BASE
100
AcDbVertex
100
AcDbPolyFaceMeshVertex
 10
32.59661483764648
 20
-14.78263568878174
 30
38.83140563964844
 70
   192
  0
VERTEX
  5
12B
330
128
100
AcDbEntity
  8
BASE
100
AcDbVertex
100
AcDbPolyFaceMeshVertex
 10
33.10992813110352
 20
-15.21243858337402
 30
39.00486755371094
 70
   192
  0
VERTEX
  5
12C
330
128
100
AcDbEntity
  8
BASE
100
AcDbVertex
100
AcDbPolyFaceMeshVertex
 10
33.26190185546875
 20
-15.86226654052734
 30
38.82337188720703
 70
   192
  0
VERTEX
  5
12D
330
128
100
AcDbEntity
  8
BASE
100
AcDbVertex
100
AcDbPolyFaceMeshVertex
 10
32.97017288208008
 20
-16.34024620056152
 30
38.40296936035156
 70
   192
  0
VERTEX
  5
12E
330
128
100
AcDbEntity
  8
BASE
100
AcDbVertex
100
AcDbPolyFaceMeshVertex
 10
55.48725509643555
 20
-0.1272211968898773
 30
0.0146171180531383
 70
   192
  0
VERTEX
  5
12F
330
128
100
AcDbEntity
  8
BASE
100
AcDbVertex
100
AcDbPolyFaceMeshVertex
 10
56.17905807495117
 20
0.0
 30
0.0203637480735779
 70
   192
  0
VERTEX
  5
130
330
128
100
AcDbEntity
  8
BASE
100
AcDbVertex
100
AcDbPolyFaceMeshVertex
 10
56.74100875854492
 20
-0.4032809138298035
 30
0.0226669199764729
 70
   192
  0
VERTEX
  5
131
330
128
100
AcDbEntity
  8
BASE
100
AcDbVertex
100
AcDbPolyFaceMeshVertex
 10
56.84545135498047
 20
-1.087027549743652
 30
0.0202533360570669
 70
   192
  0
VERTEX
  5
132
330
128
100
AcDbEntity
  8
BASE
100
AcDbVertex
100
AcDbPolyFaceMeshVertex
 10
56.4182243347168
 20
-1.645820379257202
 30
0.0144628714770079
 70
   192
  0
VERTEX
  5
133
330
128
100
AcDbEntity
  8
BASE
100
AcDbFaceRecord
 10
0.0
 20
0.0
 30
0.0
 70
   128
 71
     1
 72
     2
 73
     7
 74
     6
  0
VERTEX
  5
134
330
128
100
AcDbEntity
  8
BASE
100
AcDbFaceRecord
 10
0.0
 20
0.0
 30
0.0
 70
   128
 71
     2
 72
     3
 73
     8
 74
     7
  0
VERTEX
  5
135
330
128
100
AcDbEntity
  8
BASE
100
AcDbFaceRecord
 10
0.0
 20
0.0
 30
0.0
 70
   128
 71
     3
 72
     4
 73
     9
 74
     8
  0
VERTEX
  5
136
330
128
100
AcDbEntity
  8
BASE
100
AcDbFaceRecord
 10
0.0
 20
0.0
 30
0.0
 70
   128
 71
     4
 72
     5
 73
    10
 74
     9
  0
SEQEND
  5
137
330
128
100
AcDbEntity
  8
BASE
  0
POLYLINE
  5
138
330
1F
100
AcDbEntity
  8
BASE
100
AcDbPolyFaceMesh
 66
     1
 10
0.0
 20
0.0
 30
0.0
 70
    64
 71
   339
 72
    85
  0
VERTEX
  5
139
330
138
100
AcDbEntity
  8
BASE
100
AcDbVertex
100
AcDbPolyFaceMeshVertex
 10
27.53434181213379
 20
-18.63278579711914
 30
45.38037490844727
 70
   192
  0
VERTEX
  5
13A
330
138
100
AcDbEntity
  8
BASE
100
AcDbVertex
100
AcDbPolyFaceMeshVertex
 10
27.53039169311523
 20
-20.50307464599609
 30
45.38037490844727
 70
   192
  0
VERTEX
  5
13B
330
138
100
AcDbEntity
  8
BASE
100
AcDbVertex
100
AcDbPolyFaceMeshVertex
 10
27.53039169311523
 20
-20.50307464599609
 30
175.0065460205078
 70
   192
  0
VERTEX
  5
13C
330
138
100
AcDbEntity
  8
BASE
100
AcDbVertex
100
AcDbPolyFaceMeshVertex
 10
27.53434181213379
 20
-18.63278579711914
 30
175.0065460205078
 70
   192
  0
VERTEX
  5
13D
330
138
100
AcDbEntity
  8
BASE
100
AcDbVertex
100
AcDbPolyFaceMeshVertex
 10
29.31111526489258
 20
-18.63278579711914
 30
175.0065460205078
 70
   192
  0
VERTEX
  5
13E
330
138
100
AcDbEntity
  8
BASE
100
AcDbVertex
100
AcDbPolyFaceMeshVertex
 10
29.31155395507812
 20
-20.48552513122559
 30
175.0065460205078
 70
   192
  0
VERTEX
  5
13F
330
138
100
AcDbEntity
  8
BASE
100
AcDbVertex
100
AcDbPolyFaceMeshVertex
 10
29.31155395507812
 20
-20.48552513122559
 30
45.38037490844727
 70
   192
  0
VERTEX
  5
140
330
138
100
AcDbEntity
  8
BASE
100
AcDbVertex
100
AcDbPolyFaceMeshVertex
 10
29.31111526489258
 20
-18.63278579711914
 30
45.38037490844727
 70
   192
  0
VERTEX
  5
141
330
138
100
AcDbEntity
  8
BASE
100
AcDbVertex
100
AcDbPolyFaceMeshVertex
 10
28.43289566040039
 20
-17.09405326843262
 30
45.38037490844727
 70
   192
  0
VERTEX
  5
142
330
138
100
AcDbEntity
  8
BASE
100
AcDbVertex
100
AcDbPolyFaceMeshVertex
 10
30.04047203063965
 20
-16.15549087524414
 30
45.38037490844727
 70
   192
  0
VERTEX
  5
143
330
138
100
AcDbEntity
  8
BASE
100
AcDbVertex
100
AcDbPolyFaceMeshVertex
 10
30.04047203063965
 20
-16.15549087524414
 30
175.0065460205078
 70
   192
  0
VERTEX
  5
144
330
138
100
AcDbEntity
  8
BASE
100
AcDbVertex
100
AcDbPolyFaceMeshVertex
 10
28.43289566040039
 20
-17.09405326843262
 30
175.0065460205078
 70
   192
  0
VERTEX
  5
145
330
138
100
AcDbEntity
  8
BASE
100
AcDbVertex
100
AcDbPolyFaceMeshVertex
 10
29.31111526489258
 20
-18.63278579711914
 30
175.0065460205078
 70
   192
  0
VERTEX
  5
146
330
138
100
AcDbEntity
  8
BASE
100
AcDbVertex
100
AcDbPolyFaceMeshVertex
 10
30.91585350036621
 20
-17.70679473876953
 30
175.0065460205078
 70
   192
  0
VERTEX
  5
147
330
138
100
AcDbEntity
  8
BASE
100
AcDbVertex
100
AcDbPolyFaceMeshVertex
 10
30.91585350036621
 20
-17.70679473876953
 30
45.38037490844727
 70
   192
  0
VERTEX
  5
148
330
138
100
AcDbEntity
  8
BASE
100
AcDbVertex
100
AcDbPolyFaceMeshVertex
 10
29.31111526489258
 20
-18.63278579711914
 30
45.38037490844727
 70
   192
  0
VERTEX
  5
149
330
138
100
AcDbEntity
  8
BASE
100
AcDbVertex
100
AcDbPolyFaceMeshVertex
 10
28.43398094177246
 20
-17.09405326843262
 30
45.38037490844727
 70
   192
  0
VERTEX
  5
14A
330
138
100
AcDbEntity
  8
BASE
100
AcDbVertex
100
AcDbPolyFaceMeshVertex
 10
26.82867431640625
 20
-16.15549087524414
 30
45.38037490844727
 70
   192
  0
VERTEX
  5
14B
330
138
100
AcDbEntity
  8
BASE
100
AcDbVertex
100
AcDbPolyFaceMeshVertex
 10
26.82867431640625
 20
-16.15549087524414
 30
175.0065460205078
 70
   192
  0
VERTEX
  5
14C
330
138
100
AcDbEntity
  8
BASE
100
AcDbVertex
100
AcDbPolyFaceMeshVertex
 10
28.43398094177246
 20
-17.09405326843262
 30
175.0065460205078
 70
   192
  0
VERTEX
  5
14D
330
138
100
AcDbEntity
  8
BASE
100
AcDbVertex
100
AcDbPolyFaceMeshVertex
 10
27.53434181213379
 20
-18.63278579711914
 30
175.0065460205078
 70
   192
  0
VERTEX
  5
14E
330
138
100
AcDbEntity
  8
BASE
100
AcDbVertex
100
AcDbPolyFaceMeshVertex
 10
25.95328903198242
 20
-17.70679473876953
 30
175.0065460205078
 70
   192
  0
VERTEX
  5
14F
330
138
100
AcDbEntity
  8
BASE
100
AcDbVertex
100
AcDbPolyFaceMeshVertex
 10
25.95328903198242
 20
-17.70679473876953
 30
45.38037490844727
 70
   192
  0
VERTEX
  5
150
330
138
100
AcDbEntity
  8
BASE
100
AcDbVertex
100
AcDbPolyFaceMeshVertex
 10
27.53434181213379
 20
-18.63278579711914
 30
45.38037490844727
 70
   192
  0
VERTEX
  5
151
330
138
100
AcDbEntity
  8
BASE
100
AcDbVertex
100
AcDbPolyFaceMeshVertex
 10
28.43289566040039
 20
-17.09405326843262
 30
45.38037490844727
 70
   192
  0
VERTEX
  5
152
330
138
100
AcDbEntity
  8
BASE
100
AcDbVertex
100
AcDbPolyFaceMeshVertex
 10
27.53434181213379
 20
-18.63278579711914
 30
45.38037490844727
 70
   192
  0
VERTEX
  5
153
330
138
100
AcDbEntity
  8
BASE
100
AcDbVertex
100
AcDbPolyFaceMeshVertex
 10
29.31111526489258
 20
-18.63278579711914
 30
45.38037490844727
 70
   192
  0
VERTEX
  5
154
330
138
100
AcDbEntity
  8
BASE
100
AcDbVertex
100
AcDbPolyFaceMeshVertex
 10
29.31111526489258
 20
-18.63278579711914
 30
45.38037490844727
 70
   192
  0
VERTEX
  5
155
330
138
100
AcDbEntity
  8
BASE
100
AcDbVertex
100
AcDbPolyFaceMeshVertex
 10
29.31155395507812
 20
-20.48552513122559
 30
45.38037490844727
 70
   192
  0
VERTEX
  5
156
330
138
100
AcDbEntity
  8
BASE
100
AcDbVertex
100
AcDbPolyFaceMeshVertex
 10
27.53039169311523
 20
-20.50307464599609
 30
45.38037490844727
 70
   192
  0
VERTEX
  5
157
330
138
100
AcDbEntity
  8
BASE
100
AcDbVertex
100
AcDbPolyFaceMeshVertex
 10
27.53434181213379
 20
-18.63278579711914
 30
45.38037490844727
 70
   192
  0
VERTEX
  5
158
330
138
100
AcDbEntity
  8
BASE
100
AcDbVertex
100
AcDbPolyFaceMeshVertex
 10
28.42097091674805
 20
-20.49430084228516
 30
45.38037490844727
 70
   192
  0
VERTEX
  5
159
330
138
100
AcDbEntity
  8
BASE
100
AcDbVertex
100
AcDbPolyFaceMeshVertex
 10
28.43008041381836
 20
-21.41888999938965
 30
45.38037490844727
 70
   192
  0
VERTEX
  5
15A
330
138
100
AcDbEntity
  8
BASE
100
AcDbVertex
100
AcDbPolyFaceMeshVertex
 10
29.06926536560059
 20
-21.13962173461914
 30
45.38037490844727
 70
   192
  0
VERTEX
  5
15B
330
138
100
AcDbEntity
  8
BASE
100
AcDbVertex
100
AcDbPolyFaceMeshVertex
 10
29.31155395507812
 20
-20.48552513122559
 30
45.38037490844727
 70
   192
  0
VERTEX
  5
15C
330
138
100
AcDbEntity
  8
BASE
100
AcDbVertex
100
AcDbPolyFaceMeshVertex
 10
28.42097091674805
 20
-20.49430084228516
 30
45.38037490844727
 70
   192
  0
VERTEX
  5
15D
330
138
100
AcDbEntity
  8
BASE
100
AcDbVertex
100
AcDbPolyFaceMeshVertex
 10
28.43008041381836
 20
-21.41888999938965
 30
45.38037490844727
 70
   192
  0
VERTEX
  5
15E
330
138
100
AcDbEntity
  8
BASE
100
AcDbVertex
100
AcDbPolyFaceMeshVertex
 10
27.7855224609375
 20
-21.15227127075195
 30
45.38037490844727
 70
   192
  0
VERTEX
  5
15F
330
138
100
AcDbEntity
  8
BASE
100
AcDbVertex
100
AcDbPolyFaceMeshVertex
 10
27.53039169311523
 20
-20.50307464599609
 30
45.38037490844727
 70
   192
  0
VERTEX
  5
160
330
138
100
AcDbEntity
  8
BASE
100
AcDbVertex
100
AcDbPolyFaceMeshVertex
 10
29.31111526489258
 20
-21.79083633422852
 30
37.42823028564453
 70
   192
  0
VERTEX
  5
161
330
138
100
AcDbEntity
  8
BASE
100
AcDbVertex
100
AcDbPolyFaceMeshVertex
 10
29.31155395507812
 20
-22.95070457458496
 30
38.40296936035156
 70
   192
  0
VERTEX
  5
162
330
138
100
AcDbEntity
  8
BASE
100
AcDbVertex
100
AcDbPolyFaceMeshVertex
 10
27.53039169311523
 20
-22.96414756774902
 30
38.41424942016602
 70
   192
  0
VERTEX
  5
163
330
138
100
AcDbEntity
  8
BASE
100
AcDbVertex
100
AcDbPolyFaceMeshVertex
 10
27.53434181213379
 20
-21.79083633422852
 30
37.42823028564453
 70
   192
  0
VERTEX
  5
164
330
138
100
AcDbEntity
  8
BASE
100
AcDbVertex
100
AcDbPolyFaceMeshVertex
 10
29.31111526489258
 20
-48.10767364501953
 30
0.0000000000000227
 70
   192
  0
VERTEX
  5
165
330
138
100
AcDbEntity
  8
BASE
100
AcDbVertex
100
AcDbPolyFaceMeshVertex
 10
29.31155395507812
 20
-49.62266540527344
 30
0.0144628714770079
 70
   192
  0
VERTEX
  5
166
330
138
100
AcDbEntity
  8
BASE
100
AcDbVertex
100
AcDbPolyFaceMeshVertex
 10
27.53039169311523
 20
-49.64021301269531
 30
0.0146171180531383
 70
   192
  0
VERTEX
  5
167
330
138
100
AcDbEntity
  8
BASE
100
AcDbVertex
100
AcDbPolyFaceMeshVertex
 10
27.53434181213379
 20
-48.10767364501953
 30
0.0000000000000227
 70
   192
  0
VERTEX
  5
168
330
138
100
AcDbEntity
  8
BASE
100
AcDbVertex
100
AcDbPolyFaceMeshVertex
 10
27.53434181213379
 20
-21.79083633422852
 30
37.42823028564453
 70
   192
  0
VERTEX
  5
169
330
138
100
AcDbEntity
  8
BASE
100
AcDbVertex
100
AcDbPolyFaceMeshVertex
 10
27.53039169311523
 20
-22.96414756774902
 30
38.41424942016602
 70
   192
  0
VERTEX
  5
16A
330
138
100
AcDbEntity
  8
BASE
100
AcDbVertex
100
AcDbPolyFaceMeshVertex
 10
27.53039169311523
 20
-49.64021301269531
 30
0.0146171180531383
 70
   192
  0
VERTEX
  5
16B
330
138
100
AcDbEntity
  8
BASE
100
AcDbVertex
100
AcDbPolyFaceMeshVertex
 10
27.53434181213379
 20
-48.10767364501953
 30
0.0000000000000227
 70
   192
  0
VERTEX
  5
16C
330
138
100
AcDbEntity
  8
BASE
100
AcDbVertex
100
AcDbPolyFaceMeshVertex
 10
29.31111526489258
 20
-21.79083633422852
 30
37.42823028564453
 70
   192
  0
VERTEX
  5
16D
330
138
100
AcDbEntity
  8
BASE
100
AcDbVertex
100
AcDbPolyFaceMeshVertex
 10
29.31155395507812
 20
-22.95070457458496
 30
38.40296936035156
 70
   192
  0
VERTEX
  5
16E
330
138
100
AcDbEntity
  8
BASE
100
AcDbVertex
100
AcDbPolyFaceMeshVertex
 10
29.31155395507812
 20
-49.62266540527344
 30
0.0144628714770079
 70
   192
  0
VERTEX
  5
16F
330
138
100
AcDbEntity
  8
BASE
100
AcDbVertex
100
AcDbPolyFaceMeshVertex
 10
29.31111526489258
 20
-48.10767364501953
 30
0.0000000000000227
 70
   192
  0
VERTEX
  5
170
330
138
100
AcDbEntity
  8
BASE
100
AcDbVertex
100
AcDbPolyFaceMeshVertex
 10
27.53434181213379
 20
-48.10767364501953
 30
0.0000000000000227
 70
   192
  0
VERTEX
  5
171
330
138
100
AcDbEntity
  8
BASE
100
AcDbVertex
100
AcDbPolyFaceMeshVertex
 10
29.31111526489258
 20
-48.10767364501953
 30
0.0000000000000227
 70
   192
  0
VERTEX
  5
172
330
138
100
AcDbEntity
  8
BASE
100
AcDbVertex
100
AcDbPolyFaceMeshVertex
 10
29.31111526489258
 20
-21.79083633422852
 30
37.42823028564453
 70
   192
  0
VERTEX
  5
173
330
138
100
AcDbEntity
  8
BASE
100
AcDbVertex
100
AcDbPolyFaceMeshVertex
 10
27.53434181213379
 20
-21.79083633422852
 30
37.42823028564453
 70
   192
  0
VERTEX
  5
174
330
138
100
AcDbEntity
  8
BASE
100
AcDbVertex
100
AcDbPolyFaceMeshVertex
 10
27.53434181213379
 20
-18.63278579711914
 30
45.38037490844727
 70
   192
  0
VERTEX
  5
175
330
138
100
AcDbEntity
  8
BASE
100
AcDbVertex
100
AcDbPolyFaceMeshVertex
 10
27.53434181213379
 20
-18.63278579711914
 30
42.96773529052734
 70
   192
  0
VERTEX
  5
176
330
138
100
AcDbEntity
  8
BASE
100
AcDbVertex
100
AcDbPolyFaceMeshVertex
 10
27.53039169311523
 20
-20.71731185913086
 30
43.90400314331055
 70
   192
  0
VERTEX
  5
177
330
138
100
AcDbEntity
  8
BASE
100
AcDbVertex
100
AcDbPolyFaceMeshVertex
 10
27.53039169311523
 20
-20.50307464599609
 30
45.38037490844727
 70
   192
  0
VERTEX
  5
178
330
138
100
AcDbEntity
  8
BASE
100
AcDbVertex
100
AcDbPolyFaceMeshVertex
 10
27.53434181213379
 20
-18.63278579711914
 30
42.96773529052734
 70
   192
  0
VERTEX
  5
179
330
138
100
AcDbEntity
  8
BASE
100
AcDbVertex
100
AcDbPolyFaceMeshVertex
 10
27.53434181213379
 20
-19.89988708496094
 30
40.0201530456543
 70
   192
  0
VERTEX
  5
17A
330
138
100
AcDbEntity
  8
BASE
100
AcDbVertex
100
AcDbPolyFaceMeshVertex
 10
27.53039169311523
 20
-21.07461166381836
 30
42.45558929443359
 70
   192
  0
VERTEX
  5
17B
330
138
100
AcDbEntity
  8
BASE
100
AcDbVertex
100
AcDbPolyFaceMeshVertex
 10
27.53039169311523
 20
-20.71731185913086
 30
43.90400314331055
 70
   192
  0
VERTEX
  5
17C
330
138
100
AcDbEntity
  8
BASE
100
AcDbVertex
100
AcDbPolyFaceMeshVertex
 10
27.53434181213379
 20
-19.89988708496094
 30
40.0201530456543
 70
   192
  0
VERTEX
  5
17D
330
138
100
AcDbEntity
  8
BASE
100
AcDbVertex
100
AcDbPolyFaceMeshVertex
 10
27.53434181213379
 20
-20.84536361694336
 30
38.72418975830078
 70
   192
  0
VERTEX
  5
17E
330
138
100
AcDbEntity
  8
BASE
100
AcDbVertex
100
AcDbPolyFaceMeshVertex
 10
27.53039169311523
 20
-21.57155990600586
 30
41.0489616394043
 70
   192
  0
VERTEX
  5
17F
330
138
100
AcDbEntity
  8
BASE
100
AcDbVertex
100
AcDbPolyFaceMeshVertex
 10
27.53039169311523
 20
-21.07461166381836
 30
42.45558929443359
 70
   192
  0
VERTEX
  5
180
330
138
100
AcDbEntity
  8
BASE
100
AcDbVertex
100
AcDbPolyFaceMeshVertex
 10
27.53434181213379
 20
-20.84536361694336
 30
38.72418975830078
 70
   192
  0
VERTEX
  5
181
330
138
100
AcDbEntity
  8
BASE
100
AcDbVertex
100
AcDbPolyFaceMeshVertex
 10
27.53434181213379
 20
-21.31809997558594
 30
38.07621002197266
 70
   192
  0
VERTEX
  5
182
330
138
100
AcDbEntity
  8
BASE
100
AcDbVertex
100
AcDbPolyFaceMeshVertex
 10
27.53039169311523
 20
-22.20341873168945
 30
39.69754791259766
 70
   192
  0
VERTEX
  5
183
330
138
100
AcDbEntity
  8
BASE
100
AcDbVertex
100
AcDbPolyFaceMeshVertex
 10
27.53039169311523
 20
-21.57155990600586
 30
41.0489616394043
 70
   192
  0
VERTEX
  5
184
330
138
100
AcDbEntity
  8
BASE
100
AcDbVertex
100
AcDbPolyFaceMeshVertex
 10
27.53434181213379
 20
-21.31809997558594
 30
38.07621002197266
 70
   192
  0
VERTEX
  5
185
330
138
100
AcDbEntity
  8
BASE
100
AcDbVertex
100
AcDbPolyFaceMeshVertex
 10
27.53434181213379
 20
-21.79083633422852
 30
37.42823028564453
 70
   192
  0
VERTEX
  5
186
330
138
100
AcDbEntity
  8
BASE
100
AcDbVertex
100
AcDbPolyFaceMeshVertex
 10
27.53039169311523
 20
-22.96414756774902
 30
38.41424942016602
 70
   192
  0
VERTEX
  5
187
330
138
100
AcDbEntity
  8
BASE
100
AcDbVertex
100
AcDbPolyFaceMeshVertex
 10
27.53039169311523
 20
-22.20341873168945
 30
39.69754791259766
 70
   192
  0
VERTEX
  5
188
330
138
100
AcDbEntity
  8
BASE
100
AcDbVertex
100
AcDbPolyFaceMeshVertex
 10
29.31111526489258
 20
-20.84536361694336
 30
38.72418975830078
 70
   192
  0
VERTEX
  5
189
330
138
100
AcDbEntity
  8
BASE
100
AcDbVertex
100
AcDbPolyFaceMeshVertex
 10
29.31111526489258
 20
-21.31809997558594
 30
38.07621002197266
 70
   192
  0
VERTEX
  5
18A
330
138
100
AcDbEntity
  8
BASE
100
AcDbVertex
100
AcDbPolyFaceMeshVertex
 10
29.3150634765625
 20
-22.20341873168945
 30
39.69754791259766
 70
   192
  0
VERTEX
  5
18B
330
138
100
AcDbEntity
  8
BASE
100
AcDbVertex
100
AcDbPolyFaceMeshVertex
 10
29.3150634765625
 20
-21.57155990600586
 30
41.0489616394043
 70
   192
  0
VERTEX
  5
18C
330
138
100
AcDbEntity
  8
BASE
100
AcDbVertex
100
AcDbPolyFaceMeshVertex
 10
29.31111526489258
 20
-21.31809997558594
 30
38.07621002197266
 70
   192
  0
VERTEX
  5
18D
330
138
100
AcDbEntity
  8
BASE
100
AcDbVertex
100
AcDbPolyFaceMeshVertex
 10
29.31111526489258
 20
-21.79083633422852
 30
37.42823028564453
 70
   192
  0
VERTEX
  5
18E
330
138
100
AcDbEntity
  8
BASE
100
AcDbVertex
100
AcDbPolyFaceMeshVertex
 10
29.3150634765625
 20
-22.96414756774902
 30
38.41424942016602
 70
   192
  0
VERTEX
  5
18F
330
138
100
AcDbEntity
  8
BASE
100
AcDbVertex
100
AcDbPolyFaceMeshVertex
 10
29.3150634765625
 20
-22.20341873168945
 30
39.69754791259766
 70
   192
  0
VERTEX
  5
190
330
138
100
AcDbEntity
  8
BASE
100
AcDbVertex
100
AcDbPolyFaceMeshVertex
 10
29.31111526489258
 20
-19.89988708496094
 30
40.0201530456543
 70
   192
  0
VERTEX
  5
191
330
138
100
AcDbEntity
  8
BASE
100
AcDbVertex
100
AcDbPolyFaceMeshVertex
 10
29.31111526489258
 20
-20.84536361694336
 30
38.72418975830078
 70
   192
  0
VERTEX
  5
192
330
138
100
AcDbEntity
  8
BASE
100
AcDbVertex
100
AcDbPolyFaceMeshVertex
 10
29.3150634765625
 20
-21.57155990600586
 30
41.0489616394043
 70
   192
  0
VERTEX
  5
193
330
138
100
AcDbEntity
  8
BASE
100
AcDbVertex
100
AcDbPolyFaceMeshVertex
 10
29.3150634765625
 20
-21.07461166381836
 30
42.45558929443359
 70
   192
  0
VERTEX
  5
194
330
138
100
AcDbEntity
  8
BASE
100
AcDbVertex
100
AcDbPolyFaceMeshVertex
 10
29.31111526489258
 20
-18.63278579711914
 30
45.38037490844727
 70
   192
  0
VERTEX
  5
195
330
138
100
AcDbEntity
  8
BASE
100
AcDbVertex
100
AcDbPolyFaceMeshVertex
 10
29.31111526489258
 20
-18.63278579711914
 30
42.96773529052734
 70
   192
  0
VERTEX
  5
196
330
138
100
AcDbEntity
  8
BASE
100
AcDbVertex
100
AcDbPolyFaceMeshVertex
 10
29.3150634765625
 20
-20.71731185913086
 30
43.90400314331055
 70
   192
  0
VERTEX
  5
197
330
138
100
AcDbEntity
  8
BASE
100
AcDbVertex
100
AcDbPolyFaceMeshVertex
 10
29.3150634765625
 20
-20.50307464599609
 30
45.38037490844727
 70
   192
  0
VERTEX
  5
198
330
138
100
AcDbEntity
  8
BASE
100
AcDbVertex
100
AcDbPolyFaceMeshVertex
 10
29.31111526489258
 20
-18.63278579711914
 30
42.96773529052734
 70
   192
  0
VERTEX
  5
199
330
138
100
AcDbEntity
  8
BASE
100
AcDbVertex
100
AcDbPolyFaceMeshVertex
 10
29.31111526489258
 20
-19.89988708496094
 30
40.0201530456543
 70
   192
  0
VERTEX
  5
19A
330
138
100
AcDbEntity
  8
BASE
100
AcDbVertex
100
AcDbPolyFaceMeshVertex
 10
29.3150634765625
 20
-21.07461166381836
 30
42.45558929443359
 70
   192
  0
VERTEX
  5
19B
330
138
100
AcDbEntity
  8
BASE
100
AcDbVertex
100
AcDbPolyFaceMeshVertex
 10
29.3150634765625
 20
-20.71731185913086
 30
43.90400314331055
 70
   192
  0
VERTEX
  5
19C
330
138
100
AcDbEntity
  8
BASE
100
AcDbVertex
100
AcDbPolyFaceMeshVertex
 10
27.53434181213379
 20
-18.63278579711914
 30
45.38037490844727
 70
   192
  0
VERTEX
  5
19D
330
138
100
AcDbEntity
  8
BASE
100
AcDbVertex
100
AcDbPolyFaceMeshVertex
 10
25.96417236328125
 20
-17.64931106567383
 30
45.38037490844727
 70
   192
  0
VERTEX
  5
19E
330
138
100
AcDbEntity
  8
BASE
100
AcDbVertex
100
AcDbPolyFaceMeshVertex
 10
26.89513778686523
 20
-16.13071060180664
 30
45.38037490844727
 70
   192
  0
VERTEX
  5
19F
330
138
100
AcDbEntity
  8
BASE
100
AcDbVertex
100
AcDbPolyFaceMeshVertex
 10
28.47784805297852
 20
-17.12722206115723
 30
45.38037490844727
 70
   192
  0
VERTEX
  5
1A0
330
138
100
AcDbEntity
  8
BASE
100
AcDbVertex
100
AcDbPolyFaceMeshVertex
 10
26.42965698242188
 20
-16.89001083374023
 30
45.38037490844727
 70
   192
  0
VERTEX
  5
1A1
330
138
100
AcDbEntity
  8
BASE
100
AcDbVertex
100
AcDbPolyFaceMeshVertex
 10
25.64136123657227
 20
-16.40675163269043
 30
45.38037490844727
 70
   192
  0
VERTEX
  5
1A2
330
138
100
AcDbEntity
  8
BASE
100
AcDbVertex
100
AcDbPolyFaceMeshVertex
 10
25.5385799407959
 20
-17.09666633605957
 30
45.38037490844727
 70
   192
  0
VERTEX
  5
1A3
330
138
100
AcDbEntity
  8
BASE
100
AcDbVertex
100
AcDbPolyFaceMeshVertex
 10
25.96417236328125
 20
-17.64931106567383
 30
45.38037490844727
 70
   192
  0
VERTEX
  5
1A4
330
138
100
AcDbEntity
  8
BASE
100
AcDbVertex
100
AcDbPolyFaceMeshVertex
 10
26.42965698242188
 20
-16.89001083374023
 30
45.38037490844727
 70
   192
  0
VERTEX
  5
1A5
330
138
100
AcDbEntity
  8
BASE
100
AcDbVertex
100
AcDbPolyFaceMeshVertex
 10
25.64136123657227
 20
-16.40675163269043
 30
45.38037490844727
 70
   192
  0
VERTEX
  5
1A6
330
138
100
AcDbEntity
  8
BASE
100
AcDbVertex
100
AcDbPolyFaceMeshVertex
 10
26.20955848693848
 20
-16.00215911865234
 30
45.38037490844727
 70
   192
  0
VERTEX
  5
1A7
330
138
100
AcDbEntity
  8
BASE
100
AcDbVertex
100
AcDbPolyFaceMeshVertex
 10
26.89513778686523
 20
-16.13071060180664
 30
45.38037490844727
 70
   192
  0
VERTEX
  5
1A8
330
138
100
AcDbEntity
  8
BASE
100
AcDbVertex
100
AcDbPolyFaceMeshVertex
 10
24.85834121704102
 20
-16.95578956604004
 30
37.42823028564453
 70
   192
  0
VERTEX
  5
1A9
330
138
100
AcDbEntity
  8
BASE
100
AcDbVertex
100
AcDbPolyFaceMeshVertex
 10
23.87528610229492
 20
-16.34024620056152
 30
38.40296936035156
 70
   192
  0
VERTEX
  5
1AA
330
138
100
AcDbEntity
  8
BASE
100
AcDbVertex
100
AcDbPolyFaceMeshVertex
 10
24.80973052978516
 20
-14.82382678985596
 30
38.41424942016602
 70
   192
  0
VERTEX
  5
1AB
330
138
100
AcDbEntity
  8
BASE
100
AcDbVertex
100
AcDbPolyFaceMeshVertex
 10
25.80184555053711
 20
-15.45022583007812
 30
37.42823028564453
 70
   192
  0
VERTEX
  5
1AC
330
138
100
AcDbEntity
  8
BASE
100
AcDbVertex
100
AcDbPolyFaceMeshVertex
 10
1.711203336715698
 20
-2.449943065643311
 30
0.0
 70
   192
  0
VERTEX
  5
1AD
330
138
100
AcDbEntity
  8
BASE
100
AcDbVertex
100
AcDbPolyFaceMeshVertex
 10
0.4272302091121674
 20
-1.645820379257202
 30
0.0144628714770079
 70
   192
  0
VERTEX
  5
1AE
330
138
100
AcDbEntity
  8
BASE
100
AcDbVertex
100
AcDbPolyFaceMeshVertex
 10
1.358197212219238
 20
-0.1272211968898773
 30
0.0146171180531383
 70
   192
  0
VERTEX
  5
1AF
330
138
100
AcDbEntity
  8
BASE
100
AcDbVertex
100
AcDbPolyFaceMeshVertex
 10
2.654709815979004
 20
-0.9443793296813965
 30
0.0
 70
   192
  0
VERTEX
  5
1B0
330
138
100
AcDbEntity
  8
BASE
100
AcDbVertex
100
AcDbPolyFaceMeshVertex
 10
25.80184555053711
 20
-15.45022583007812
 30
37.42823028564453
 70
   192
  0
VERTEX
  5
1B1
330
138
100
AcDbEntity
  8
BASE
100
AcDbVertex
100
AcDbPolyFaceMeshVertex
 10
24.80973052978516
 20
-14.82382678985596
 30
38.41424942016602
 70
   192
  0
VERTEX
  5
1B2
330
138
100
AcDbEntity
  8
BASE
100
AcDbVertex
100
AcDbPolyFaceMeshVertex
 10
1.358197212219238
 20
-0.1272211968898773
 30
0.0146171180531383
 70
   192
  0
VERTEX
  5
1B3
330
138
100
AcDbEntity
  8
BASE
100
AcDbVertex
100
AcDbPolyFaceMeshVertex
 10
2.654709815979004
 20
-0.9443793296813965
 30
0.0
 70
   192
  0
VERTEX
  5
1B4
330
138
100
AcDbEntity
  8
BASE
100
AcDbVertex
100
AcDbPolyFaceMeshVertex
 10
24.85834121704102
 20
-16.95578956604004
 30
37.42823028564453
 70
   192
  0
VERTEX
  5
1B5
330
138
100
AcDbEntity
  8
BASE
100
AcDbVertex
100
AcDbPolyFaceMeshVertex
 10
23.87528610229492
 20
-16.34024620056152
 30
38.40296936035156
 70
   192
  0
VERTEX
  5
1B6
330
138
100
AcDbEntity
  8
BASE
100
AcDbVertex
100
AcDbPolyFaceMeshVertex
 10
0.4272302091121674
 20
-1.645820379257202
 30
0.0144628714770079
 70
   192
  0
VERTEX
  5
1B7
330
138
100
AcDbEntity
  8
BASE
100
AcDbVertex
100
AcDbPolyFaceMeshVertex
 10
1.711203336715698
 20
-2.449943065643311
 30
0.0
 70
   192
  0
VERTEX
  5
1B8
330
138
100
AcDbEntity
  8
BASE
100
AcDbVertex
100
AcDbPolyFaceMeshVertex
 10
2.654709815979004
 20
-0.9443793296813965
 30
0.0
 70
   192
  0
VERTEX
  5
1B9
330
138
100
AcDbEntity
  8
BASE
100
AcDbVertex
100
AcDbPolyFaceMeshVertex
 10
1.711203336715698
 20
-2.449943065643311
 30
0.0
 70
   192
  0
VERTEX
  5
1BA
330
138
100
AcDbEntity
  8
BASE
100
AcDbVertex
100
AcDbPolyFaceMeshVertex
 10
24.85834121704102
 20
-16.95578956604004
 30
37.42823028564453
 70
   192
  0
VERTEX
  5
1BB
330
138
100
AcDbEntity
  8
BASE
100
AcDbVertex
100
AcDbPolyFaceMeshVertex
 10
25.80184555053711
 20
-15.45022583007812
 30
37.42823028564453
 70
   192
  0
VERTEX
  5
1BC
330
138
100
AcDbEntity
  8
BASE
100
AcDbVertex
100
AcDbPolyFaceMeshVertex
 10
28.47784805297852
 20
-17.12722206115723
 30
45.38037490844727
 70
   192
  0
VERTEX
  5
1BD
330
138
100
AcDbEntity
  8
BASE
100
AcDbVertex
100
AcDbPolyFaceMeshVertex
 10
28.47784805297852
 20
-17.12722206115723
 30
42.96773529052734
 70
   192
  0
VERTEX
  5
1BE
330
138
100
AcDbEntity
  8
BASE
100
AcDbVertex
100
AcDbPolyFaceMeshVertex
 10
26.71360397338867
 20
-16.01694679260254
 30
43.90400314331055
 70
   192
  0
VERTEX
  5
1BF
330
138
100
AcDbEntity
  8
BASE
100
AcDbVertex
100
AcDbPolyFaceMeshVertex
 10
26.89513778686523
 20
-16.13071060180664
 30
45.38037490844727
 70
   192
  0
VERTEX
  5
1C0
330
138
100
AcDbEntity
  8
BASE
100
AcDbVertex
100
AcDbPolyFaceMeshVertex
 10
28.47784805297852
 20
-17.12722206115723
 30
42.96773529052734
 70
   192
  0
VERTEX
  5
1C1
330
138
100
AcDbEntity
  8
BASE
100
AcDbVertex
100
AcDbPolyFaceMeshVertex
 10
27.40415954589844
 20
-16.4543628692627
 30
40.0201530456543
 70
   192
  0
VERTEX
  5
1C2
330
138
100
AcDbEntity
  8
BASE
100
AcDbVertex
100
AcDbPolyFaceMeshVertex
 10
26.41084289550781
 20
-15.8272123336792
 30
42.45558929443359
 70
   192
  0
VERTEX
  5
1C3
330
138
100
AcDbEntity
  8
BASE
100
AcDbVertex
100
AcDbPolyFaceMeshVertex
 10
26.71360397338867
 20
-16.01694679260254
 30
43.90400314331055
 70
   192
  0
VERTEX
  5
1C4
330
138
100
AcDbEntity
  8
BASE
100
AcDbVertex
100
AcDbPolyFaceMeshVertex
 10
27.40415954589844
 20
-16.4543628692627
 30
40.0201530456543
 70
   192
  0
VERTEX
  5
1C5
330
138
100
AcDbEntity
  8
BASE
100
AcDbVertex
100
AcDbPolyFaceMeshVertex
 10
26.60300254821777
 20
-15.95229339599609
 30
38.72418975830078
 70
   192
  0
VERTEX
  5
1C6
330
138
100
AcDbEntity
  8
BASE
100
AcDbVertex
100
AcDbPolyFaceMeshVertex
 10
25.98974990844727
 20
-15.56332111358643
 30
41.0489616394043
 70
   192
  0
VERTEX
  5
1C7
330
138
100
AcDbEntity
  8
BASE
100
AcDbVertex
100
AcDbPolyFaceMeshVertex
 10
26.41084289550781
 20
-15.8272123336792
 30
42.45558929443359
 70
   192
  0
VERTEX
  5
1C8
330
138
100
AcDbEntity
  8
BASE
100
AcDbVertex
100
AcDbPolyFaceMeshVertex
 10
26.60300254821777
 20
-15.95229339599609
 30
38.72418975830078
 70
   192
  0
VERTEX
  5
1C9
330
138
100
AcDbEntity
  8
BASE
100
AcDbVertex
100
AcDbPolyFaceMeshVertex
 10
26.20242309570312
 20
-15.70126056671143
 30
38.07621002197266
 70
   192
  0
VERTEX
  5
1CA
330
138
100
AcDbEntity
  8
BASE
100
AcDbVertex
100
AcDbPolyFaceMeshVertex
 10
25.45434188842773
 20
-15.22779083251953
 30
39.69754791259766
 70
   192
  0
VERTEX
  5
1CB
330
138
100
AcDbEntity
  8
BASE
100
AcDbVertex
100
AcDbPolyFaceMeshVertex
 10
25.98974990844727
 20
-15.56332111358643
 30
41.0489616394043
 70
   192
  0
VERTEX
  5
1CC
330
138
100
AcDbEntity
  8
BASE
100
AcDbVertex
100
AcDbPolyFaceMeshVertex
 10
26.20242309570312
 20
-15.70126056671143
 30
38.07621002197266
 70
   192
  0
VERTEX
  5
1CD
330
138
100
AcDbEntity
  8
BASE
100
AcDbVertex
100
AcDbPolyFaceMeshVertex
 10
25.80184555053711
 20
-15.45022583007812
 30
37.42823028564453
 70
   192
  0
VERTEX
  5
1CE
330
138
100
AcDbEntity
  8
BASE
100
AcDbVertex
100
AcDbPolyFaceMeshVertex
 10
24.80973052978516
 20
-14.82382678985596
 30
38.41424942016602
 70
   192
  0
VERTEX
  5
1CF
330
138
100
AcDbEntity
  8
BASE
100
AcDbVertex
100
AcDbPolyFaceMeshVertex
 10
25.45434188842773
 20
-15.22779083251953
 30
39.69754791259766
 70
   192
  0
VERTEX
  5
1D0
330
138
100
AcDbEntity
  8
BASE
100
AcDbVertex
100
AcDbPolyFaceMeshVertex
 10
25.65949630737305
 20
-17.45785903930664
 30
38.72418975830078
 70
   192
  0
VERTEX
  5
1D1
330
138
100
AcDbEntity
  8
BASE
100
AcDbVertex
100
AcDbPolyFaceMeshVertex
 10
25.25891876220703
 20
-17.20682334899902
 30
38.07621002197266
 70
   192
  0
VERTEX
  5
1D2
330
138
100
AcDbEntity
  8
BASE
100
AcDbVertex
100
AcDbPolyFaceMeshVertex
 10
24.50664138793945
 20
-16.74004745483398
 30
39.69754791259766
 70
   192
  0
VERTEX
  5
1D3
330
138
100
AcDbEntity
  8
BASE
100
AcDbVertex
100
AcDbPolyFaceMeshVertex
 10
25.04204940795898
 20
-17.07557487487793
 30
41.0489616394043
 70
   192
  0
VERTEX
  5
1D4
330
138
100
AcDbEntity
  8
BASE
100
AcDbVertex
100
AcDbPolyFaceMeshVertex
 10
25.25891876220703
 20
-17.20682334899902
 30
38.07621002197266
 70
   192
  0
VERTEX
  5
1D5
330
138
100
AcDbEntity
  8
BASE
100
AcDbVertex
100
AcDbPolyFaceMeshVertex
 10
24.85834121704102
 20
-16.95578956604004
 30
37.42823028564453
 70
   192
  0
VERTEX
  5
1D6
330
138
100
AcDbEntity
  8
BASE
100
AcDbVertex
100
AcDbPolyFaceMeshVertex
 10
23.86203002929688
 20
-16.33608055114746
 30
38.41424942016602
 70
   192
  0
VERTEX
  5
1D7
330
138
100
AcDbEntity
  8
BASE
100
AcDbVertex
100
AcDbPolyFaceMeshVertex
 10
24.50664138793945
 20
-16.74004745483398
 30
39.69754791259766
 70
   192
  0
VERTEX
  5
1D8
330
138
100
AcDbEntity
  8
BASE
100
AcDbVertex
100
AcDbPolyFaceMeshVertex
 10
26.46065139770508
 20
-17.95992660522461
 30
40.0201530456543
 70
   192
  0
VERTEX
  5
1D9
330
138
100
AcDbEntity
  8
BASE
100
AcDbVertex
100
AcDbPolyFaceMeshVertex
 10
25.65949630737305
 20
-17.45785903930664
 30
38.72418975830078
 70
   192
  0
VERTEX
  5
1DA
330
138
100
AcDbEntity
  8
BASE
100
AcDbVertex
100
AcDbPolyFaceMeshVertex
 10
25.04204940795898
 20
-17.07557487487793
 30
41.0489616394043
 70
   192
  0
VERTEX
  5
1DB
330
138
100
AcDbEntity
  8
BASE
100
AcDbVertex
100
AcDbPolyFaceMeshVertex
 10
25.46314430236816
 20
-17.3394660949707
 30
42.45558929443359
 70
   192
  0
VERTEX
  5
1DC
330
138
100
AcDbEntity
  8
BASE
100
AcDbVertex
100
AcDbPolyFaceMeshVertex
 10
27.53434181213379
 20
-18.63278579711914
 30
45.38037490844727
 70
   192
  0
VERTEX
  5
1DD
330
138
100
AcDbEntity
  8
BASE
100
AcDbVertex
100
AcDbPolyFaceMeshVertex
 10
27.53434181213379
 20
-18.63278579711914
 30
42.96773529052734
 70
   192
  0
VERTEX
  5
1DE
330
138
100
AcDbEntity
  8
BASE
100
AcDbVertex
100
AcDbPolyFaceMeshVertex
 10
25.76590347290039
 20
-17.52920150756836
 30
43.90400314331055
 70
   192
  0
VERTEX
  5
1DF
330
138
100
AcDbEntity
  8
BASE
100
AcDbVertex
100
AcDbPolyFaceMeshVertex
 10
25.94743919372559
 20
-17.64296531677246
 30
45.38037490844727
 70
   192
  0
VERTEX
  5
1E0
330
138
100
AcDbEntity
  8
BASE
100
AcDbVertex
100
AcDbPolyFaceMeshVertex
 10
27.53434181213379
 20
-18.63278579711914
 30
42.96773529052734
 70
   192
  0
VERTEX
  5
1E1
330
138
100
AcDbEntity
  8
BASE
100
AcDbVertex
100
AcDbPolyFaceMeshVertex
 10
26.46065139770508
 20
-17.95992660522461
 30
40.0201530456543
 70
   192
  0
VERTEX
  5
1E2
330
138
100
AcDbEntity
  8
BASE
100
AcDbVertex
100
AcDbPolyFaceMeshVertex
 10
25.46314430236816
 20
-17.3394660949707
 30
42.45558929443359
 70
   192
  0
VERTEX
  5
1E3
330
138
100
AcDbEntity
  8
BASE
100
AcDbVertex
100
AcDbPolyFaceMeshVertex
 10
25.76590347290039
 20
-17.52920150756836
 30
43.90400314331055
 70
   192
  0
VERTEX
  5
1E4
330
138
100
AcDbEntity
  8
BASE
100
AcDbVertex
100
AcDbPolyFaceMeshVertex
 10
29.31111526489258
 20
-18.63278579711914
 30
45.38037490844727
 70
   192
  0
VERTEX
  5
1E5
330
138
100
AcDbEntity
  8
BASE
100
AcDbVertex
100
AcDbPolyFaceMeshVertex
 10
30.88128280639648
 20
-17.64931106567383
 30
45.38037490844727
 70
   192
  0
VERTEX
  5
1E6
330
138
100
AcDbEntity
  8
BASE
100
AcDbVertex
100
AcDbPolyFaceMeshVertex
 10
29.9503173828125
 20
-16.13071060180664
 30
45.38037490844727
 70
   192
  0
VERTEX
  5
1E7
330
138
100
AcDbEntity
  8
BASE
100
AcDbVertex
100
AcDbPolyFaceMeshVertex
 10
28.36760902404785
 20
-17.12722206115723
 30
45.38037490844727
 70
   192
  0
VERTEX
  5
1E8
330
138
100
AcDbEntity
  8
BASE
100
AcDbVertex
100
AcDbPolyFaceMeshVertex
 10
30.41579818725586
 20
-16.89001083374023
 30
45.38037490844727
 70
   192
  0
VERTEX
  5
1E9
330
138
100
AcDbEntity
  8
BASE
100
AcDbVertex
100
AcDbPolyFaceMeshVertex
 10
31.2040958404541
 20
-16.40675163269043
 30
45.38037490844727
 70
   192
  0
VERTEX
  5
1EA
330
138
100
AcDbEntity
  8
BASE
100
AcDbVertex
100
AcDbPolyFaceMeshVertex
 10
31.30687522888184
 20
-17.09666633605957
 30
45.38037490844727
 70
   192
  0
VERTEX
  5
1EB
330
138
100
AcDbEntity
  8
BASE
100
AcDbVertex
100
AcDbPolyFaceMeshVertex
 10
30.88128280639648
 20
-17.64931106567383
 30
45.38037490844727
 70
   192
  0
VERTEX
  5
1EC
330
138
100
AcDbEntity
  8
BASE
100
AcDbVertex
100
AcDbPolyFaceMeshVertex
 10
30.41579818725586
 20
-16.89001083374023
 30
45.38037490844727
 70
   192
  0
VERTEX
  5
1ED
330
138
100
AcDbEntity
  8
BASE
100
AcDbVertex
100
AcDbPolyFaceMeshVertex
 10
31.2040958404541
 20
-16.40675163269043
 30
45.38037490844727
 70
   192
  0
VERTEX
  5
1EE
330
138
100
AcDbEntity
  8
BASE
100
AcDbVertex
100
AcDbPolyFaceMeshVertex
 10
30.63589477539062
 20
-16.00215911865234
 30
45.38037490844727
 70
   192
  0
VERTEX
  5
1EF
330
138
100
AcDbEntity
  8
BASE
100
AcDbVertex
100
AcDbPolyFaceMeshVertex
 10
29.9503173828125
 20
-16.13071060180664
 30
45.38037490844727
 70
   192
  0
VERTEX
  5
1F0
330
138
100
AcDbEntity
  8
BASE
100
AcDbVertex
100
AcDbPolyFaceMeshVertex
 10
31.98711585998535
 20
-16.95578956604004
 30
37.42823028564453
 70
   192
  0
VERTEX
  5
1F1
330
138
100
AcDbEntity
  8
BASE
100
AcDbVertex
100
AcDbPolyFaceMeshVertex
 10
32.97017288208008
 20
-16.34024620056152
 30
38.40296936035156
 70
   192
  0
VERTEX
  5
1F2
330
138
100
AcDbEntity
  8
BASE
100
AcDbVertex
100
AcDbPolyFaceMeshVertex
 10
32.03572845458984
 20
-14.82382678985596
 30
38.41424942016602
 70
   192
  0
VERTEX
  5
1F3
330
138
100
AcDbEntity
  8
BASE
100
AcDbVertex
100
AcDbPolyFaceMeshVertex
 10
31.04360961914062
 20
-15.45022583007812
 30
37.42823028564453
 70
   192
  0
VERTEX
  5
1F4
330
138
100
AcDbEntity
  8
BASE
100
AcDbVertex
100
AcDbPolyFaceMeshVertex
 10
31.04360961914062
 20
-15.45022583007812
 30
37.42823028564453
 70
   192
  0
VERTEX
  5
1F5
330
138
100
AcDbEntity
  8
BASE
100
AcDbVertex
100
AcDbPolyFaceMeshVertex
 10
32.03572845458984
 20
-14.82382678985596
 30
38.41424942016602
 70
   192
  0
VERTEX
  5
1F6
330
138
100
AcDbEntity
  8
BASE
100
AcDbVertex
100
AcDbPolyFaceMeshVertex
 10
55.48725509643555
 20
-0.1272211968898773
 30
0.0146171180531383
 70
   192
  0
VERTEX
  5
1F7
330
138
100
AcDbEntity
  8
BASE
100
AcDbVertex
100
AcDbPolyFaceMeshVertex
 10
54.19074630737305
 20
-0.9443793296813965
 30
0.0
 70
   192
  0
VERTEX
  5
1F8
330
138
100
AcDbEntity
  8
BASE
100
AcDbVertex
100
AcDbPolyFaceMeshVertex
 10
31.98711585998535
 20
-16.95578956604004
 30
37.42823028564453
 70
   192
  0
VERTEX
  5
1F9
330
138
100
AcDbEntity
  8
BASE
100
AcDbVertex
100
AcDbPolyFaceMeshVertex
 10
32.97017288208008
 20
-16.34024620056152
 30
38.40296936035156
 70
   192
  0
VERTEX
  5
1FA
330
138
100
AcDbEntity
  8
BASE
100
AcDbVertex
100
AcDbPolyFaceMeshVertex
 10
56.4182243347168
 20
-1.645820379257202
 30
0.0144628714770079
 70
   192
  0
VERTEX
  5
1FB
330
138
100
AcDbEntity
  8
BASE
100
AcDbVertex
100
AcDbPolyFaceMeshVertex
 10
55.13425445556641
 20
-2.449943065643311
 30
0.0
 70
   192
  0
VERTEX
  5
1FC
330
138
100
AcDbEntity
  8
BASE
100
AcDbVertex
100
AcDbPolyFaceMeshVertex
 10
54.19074630737305
 20
-0.9443793296813965
 30
0.0
 70
   192
  0
VERTEX
  5
1FD
330
138
100
AcDbEntity
  8
BASE
100
AcDbVertex
100
AcDbPolyFaceMeshVertex
 10
55.13425445556641
 20
-2.449943065643311
 30
0.0
 70
   192
  0
VERTEX
  5
1FE
330
138
100
AcDbEntity
  8
BASE
100
AcDbVertex
100
AcDbPolyFaceMeshVertex
 10
31.98711585998535
 20
-16.95578956604004
 30
37.42823028564453
 70
   192
  0
VERTEX
  5
1FF
330
138
100
AcDbEntity
  8
BASE
100
AcDbVertex
100
AcDbPolyFaceMeshVertex
 10
31.04360961914062
 20
-15.45022583007812
 30
37.42823028564453
 70
   192
  0
VERTEX
  5
200
330
138
100
AcDbEntity
  8
BASE
100
AcDbVertex
100
AcDbPolyFaceMeshVertex
 10
28.36760902404785
 20
-17.12722206115723
 30
45.38037490844727
 70
   192
  0
VERTEX
  5
201
330
138
100
AcDbEntity
  8
BASE
100
AcDbVertex
100
AcDbPolyFaceMeshVertex
 10
28.36760902404785
 20
-17.12722206115723
 30
42.96773529052734
 70
   192
  0
VERTEX
  5
202
330
138
100
AcDbEntity
  8
BASE
100
AcDbVertex
100
AcDbPolyFaceMeshVertex
 10
30.13185119628906
 20
-16.01694679260254
 30
43.90400314331055
 70
   192
  0
VERTEX
  5
203
330
138
100
AcDbEntity
  8
BASE
100
AcDbVertex
100
AcDbPolyFaceMeshVertex
 10
29.9503173828125
 20
-16.13071060180664
 30
45.38037490844727
 70
   192
  0
VERTEX
  5
204
330
138
100
AcDbEntity
  8
BASE
100
AcDbVertex
100
AcDbPolyFaceMeshVertex
 10
28.36760902404785
 20
-17.12722206115723
 30
42.96773529052734
 70
   192
  0
VERTEX
  5
205
330
138
100
AcDbEntity
  8
BASE
100
AcDbVertex
100
AcDbPolyFaceMeshVertex
 10
29.4412956237793
 20
-16.4543628692627
 30
40.0201530456543
 70
   192
  0
VERTEX
  5
206
330
138
100
AcDbEntity
  8
BASE
100
AcDbVertex
100
AcDbPolyFaceMeshVertex
 10
30.43461227416992
 20
-15.8272123336792
 30
42.45558929443359
 70
   192
  0
VERTEX
  5
207
330
138
100
AcDbEntity
  8
BASE
100
AcDbVertex
100
AcDbPolyFaceMeshVertex
 10
30.13185119628906
 20
-16.01694679260254
 30
43.90400314331055
 70
   192
  0
VERTEX
  5
208
330
138
100
AcDbEntity
  8
BASE
100
AcDbVertex
100
AcDbPolyFaceMeshVertex
 10
29.4412956237793
 20
-16.4543628692627
 30
40.0201530456543
 70
   192
  0
VERTEX
  5
209
330
138
100
AcDbEntity
  8
BASE
100
AcDbVertex
100
AcDbPolyFaceMeshVertex
 10
30.24245262145996
 20
-15.95229339599609
 30
38.72418975830078
 70
   192
  0
VERTEX
  5
20A
330
138
100
AcDbEntity
  8
BASE
100
AcDbVertex
100
AcDbPolyFaceMeshVertex
 10
30.8557071685791
 20
-15.56332111358643
 30
41.0489616394043
 70
   192
  0
VERTEX
  5
20B
330
138
100
AcDbEntity
  8
BASE
100
AcDbVertex
100
AcDbPolyFaceMeshVertex
 10
30.43461227416992
 20
-15.8272123336792
 30
42.45558929443359
 70
   192
  0
VERTEX
  5
20C
330
138
100
AcDbEntity
  8
BASE
100
AcDbVertex
100
AcDbPolyFaceMeshVertex
 10
30.24245262145996
 20
-15.95229339599609
 30
38.72418975830078
 70
   192
  0
VERTEX
  5
20D
330
138
100
AcDbEntity
  8
BASE
100
AcDbVertex
100
AcDbPolyFaceMeshVertex
 10
30.64303016662598
 20
-15.70126056671143
 30
38.07621002197266
 70
   192
  0
VERTEX
  5
20E
330
138
100
AcDbEntity
  8
BASE
100
AcDbVertex
100
AcDbPolyFaceMeshVertex
 10
31.39111709594727
 20
-15.22779083251953
 30
39.69754791259766
 70
   192
  0
VERTEX
  5
20F
330
138
100
AcDbEntity
  8
BASE
100
AcDbVertex
100
AcDbPolyFaceMeshVertex
 10
30.8557071685791
 20
-15.56332111358643
 30
41.0489616394043
 70
   192
  0
VERTEX
  5
210
330
138
100
AcDbEntity
  8
BASE
100
AcDbVertex
100
AcDbPolyFaceMeshVertex
 10
30.64303016662598
 20
-15.70126056671143
 30
38.07621002197266
 70
   192
  0
VERTEX
  5
211
330
138
100
AcDbEntity
  8
BASE
100
AcDbVertex
100
AcDbPolyFaceMeshVertex
 10
31.04360961914062
 20
-15.45022583007812
 30
37.42823028564453
 70
   192
  0
VERTEX
  5
212
330
138
100
AcDbEntity
  8
BASE
100
AcDbVertex
100
AcDbPolyFaceMeshVertex
 10
32.03572845458984
 20
-14.82382678985596
 30
38.41424942016602
 70
   192
  0
VERTEX
  5
213
330
138
100
AcDbEntity
  8
BASE
100
AcDbVertex
100
AcDbPolyFaceMeshVertex
 10
31.39111709594727
 20
-15.22779083251953
 30
39.69754791259766
 70
   192
  0
VERTEX
  5
214
330
138
100
AcDbEntity
  8
BASE
100
AcDbVertex
100
AcDbPolyFaceMeshVertex
 10
31.18595886230469
 20
-17.45785903930664
 30
38.72418975830078
 70
   192
  0
VERTEX
  5
215
330
138
100
AcDbEntity
  8
BASE
100
AcDbVertex
100
AcDbPolyFaceMeshVertex
 10
31.58653831481934
 20
-17.20682334899902
 30
38.07621002197266
 70
   192
  0
VERTEX
  5
216
330
138
100
AcDbEntity
  8
BASE
100
AcDbVertex
100
AcDbPolyFaceMeshVertex
 10
32.33881378173828
 20
-16.74004745483398
 30
39.69754791259766
 70
   192
  0
VERTEX
  5
217
330
138
100
AcDbEntity
  8
BASE
100
AcDbVertex
100
AcDbPolyFaceMeshVertex
 10
31.80340576171875
 20
-17.07557487487793
 30
41.0489616394043
 70
   192
  0
VERTEX
  5
218
330
138
100
AcDbEntity
  8
BASE
100
AcDbVertex
100
AcDbPolyFaceMeshVertex
 10
31.58653831481934
 20
-17.20682334899902
 30
38.07621002197266
 70
   192
  0
VERTEX
  5
219
330
138
100
AcDbEntity
  8
BASE
100
AcDbVertex
100
AcDbPolyFaceMeshVertex
 10
31.98711585998535
 20
-16.95578956604004
 30
37.42823028564453
 70
   192
  0
VERTEX
  5
21A
330
138
100
AcDbEntity
  8
BASE
100
AcDbVertex
100
AcDbPolyFaceMeshVertex
 10
32.98342514038086
 20
-16.33608055114746
 30
38.41424942016602
 70
   192
  0
VERTEX
  5
21B
330
138
100
AcDbEntity
  8
BASE
100
AcDbVertex
100
AcDbPolyFaceMeshVertex
 10
32.33881378173828
 20
-16.74004745483398
 30
39.69754791259766
 70
   192
  0
VERTEX
  5
21C
330
138
100
AcDbEntity
  8
BASE
100
AcDbVertex
100
AcDbPolyFaceMeshVertex
 10
30.38480567932129
 20
-17.95992660522461
 30
40.0201530456543
 70
   192
  0
VERTEX
  5
21D
330
138
100
AcDbEntity
  8
BASE
100
AcDbVertex
100
AcDbPolyFaceMeshVertex
 10
31.18595886230469
 20
-17.45785903930664
 30
38.72418975830078
 70
   192
  0
VERTEX
  5
21E
330
138
100
AcDbEntity
  8
BASE
100
AcDbVertex
100
AcDbPolyFaceMeshVertex
 10
31.80340576171875
 20
-17.07557487487793
 30
41.0489616394043
 70
   192
  0
VERTEX
  5
21F
330
138
100
AcDbEntity
  8
BASE
100
AcDbVertex
100
AcDbPolyFaceMeshVertex
 10
31.3823127746582
 20
-17.3394660949707
 30
42.45558929443359
 70
   192
  0
VERTEX
  5
220
330
138
100
AcDbEntity
  8
BASE
100
AcDbVertex
100
AcDbPolyFaceMeshVertex
 10
29.31111526489258
 20
-18.63278579711914
 30
45.38037490844727
 70
   192
  0
VERTEX
  5
221
330
138
100
AcDbEntity
  8
BASE
100
AcDbVertex
100
AcDbPolyFaceMeshVertex
 10
29.31111526489258
 20
-18.63278579711914
 30
42.96773529052734
 70
   192
  0
VERTEX
  5
222
330
138
100
AcDbEntity
  8
BASE
100
AcDbVertex
100
AcDbPolyFaceMeshVertex
 10
31.07955360412598
 20
-17.52920150756836
 30
43.90400314331055
 70
   192
  0
VERTEX
  5
223
330
138
100
AcDbEntity
  8
BASE
100
AcDbVertex
100
AcDbPolyFaceMeshVertex
 10
30.89801597595215
 20
-17.64296531677246
 30
45.38037490844727
 70
   192
  0
VERTEX
  5
224
330
138
100
AcDbEntity
  8
BASE
100
AcDbVertex
100
AcDbPolyFaceMeshVertex
 10
29.31111526489258
 20
-18.63278579711914
 30
42.96773529052734
 70
   192
  0
VERTEX
  5
225
330
138
100
AcDbEntity
  8
BASE
100
AcDbVertex
100
AcDbPolyFaceMeshVertex
 10
30.38480567932129
 20
-17.95992660522461
 30
40.0201530456543
 70
   192
  0
VERTEX
  5
226
330
138
100
AcDbEntity
  8
BASE
100
AcDbVertex
100
AcDbPolyFaceMeshVertex
 10
31.3823127746582
 20
-17.3394660949707
 30
42.45558929443359
 70
   192
  0
VERTEX
  5
227
330
138
100
AcDbEntity
  8
BASE
100
AcDbVertex
100
AcDbPolyFaceMeshVertex
 10
31.07955360412598
 20
-17.52920150756836
 30
43.90400314331055
 70
   192
  0
VERTEX
  5
228
330
138
100
AcDbEntity
  8
BASE
100
AcDbVertex
100
AcDbPolyFaceMeshVertex
 10
26.82867431640625
 20
-16.15549087524414
 30
175.0065460205078
 70
   192
  0
VERTEX
  5
229
330
138
100
AcDbEntity
  8
BASE
100
AcDbVertex
100
AcDbPolyFaceMeshVertex
 10
25.95328903198242
 20
-17.70679473876953
 30
175.0065460205078
 70
   192
  0
VERTEX
  5
22A
330
138
100
AcDbEntity
  8
BASE
100
AcDbVertex
100
AcDbPolyFaceMeshVertex
 10
27.53434181213379
 20
-18.63278579711914
 30
175.0065460205078
 70
   192
  0
VERTEX
  5
22B
330
138
100
AcDbEntity
  8
BASE
100
AcDbVertex
100
AcDbPolyFaceMeshVertex
 10
28.43398094177246
 20
-17.09405326843262
 30
175.0065460205078
 70
   192
  0
VERTEX
  5
22C
330
138
100
AcDbEntity
  8
BASE
100
AcDbVertex
100
AcDbPolyFaceMeshVertex
 10
28.43289566040039
 20
-17.09405326843262
 30
175.0065460205078
 70
   192
  0
VERTEX
  5
22D
330
138
100
AcDbEntity
  8
BASE
100
AcDbVertex
100
AcDbPolyFaceMeshVertex
 10
29.31111526489258
 20
-18.63278579711914
 30
175.0065460205078
 70
   192
  0
VERTEX
  5
22E
330
138
100
AcDbEntity
  8
BASE
100
AcDbVertex
100
AcDbPolyFaceMeshVertex
 10
30.91585350036621
 20
-17.70679473876953
 30
175.0065460205078
 70
   192
  0
VERTEX
  5
22F
330
138
100
AcDbEntity
  8
BASE
100
AcDbVertex
100
AcDbPolyFaceMeshVertex
 10
30.04047203063965
 20
-16.15549087524414
 30
175.0065460205078
 70
   192
  0
VERTEX
  5
230
330
138
100
AcDbEntity
  8
BASE
100
AcDbVertex
100
AcDbPolyFaceMeshVertex
 10
27.53434181213379
 20
-18.63278579711914
 30
175.0065460205078
 70
   192
  0
VERTEX
  5
231
330
138
100
AcDbEntity
  8
BASE
100
AcDbVertex
100
AcDbPolyFaceMeshVertex
 10
29.31111526489258
 20
-18.63278579711914
 30
175.0065460205078
 70
   192
  0
VERTEX
  5
232
330
138
100
AcDbEntity
  8
BASE
100
AcDbVertex
100
AcDbPolyFaceMeshVertex
 10
29.31155395507812
 20
-20.48552513122559
 30
175.0065460205078
 70
   192
  0
VERTEX
  5
233
330
138
100
AcDbEntity
  8
BASE
100
AcDbVertex
100
AcDbPolyFaceMeshVertex
 10
27.53039169311523
 20
-20.50307464599609
 30
175.0065460205078
 70
   192
  0
VERTEX
  5
234
330
138
100
AcDbEntity
  8
BASE
100
AcDbVertex
100
AcDbPolyFaceMeshVertex
 10
27.53434181213379
 20
-18.63278579711914
 30
175.0065460205078
 70
   192
  0
VERTEX
  5
235
330
138
100
AcDbEntity
  8
BASE
100
AcDbVertex
100
AcDbPolyFaceMeshVertex
 10
28.43289566040039
 20
-17.09405326843262
 30
175.0065460205078
 70
   192
  0
VERTEX
  5
236
330
138
100
AcDbEntity
  8
BASE
100
AcDbVertex
100
AcDbPolyFaceMeshVertex
 10
28.87200355529785
 20
-17.8634204864502
 30
175.0065460205078
 70
   192
  0
VERTEX
  5
237
330
138
100
AcDbEntity
  8
BASE
100
AcDbVertex
100
AcDbPolyFaceMeshVertex
 10
29.31111526489258
 20
-18.63278579711914
 30
175.0065460205078
 70
   192
  0
VERTEX
  5
238
330
138
100
AcDbEntity
  8
BASE
100
AcDbVertex
100
AcDbPolyFaceMeshVertex
 10
30.47816467285156
 20
-16.9311408996582
 30
175.0065460205078
 70
   192
  0
VERTEX
  5
239
330
138
100
AcDbEntity
  8
BASE
100
AcDbVertex
100
AcDbPolyFaceMeshVertex
 10
30.04047203063965
 20
-16.15549087524414
 30
175.0065460205078
 70
   192
  0
VERTEX
  5
23A
330
138
100
AcDbEntity
  8
BASE
100
AcDbVertex
100
AcDbPolyFaceMeshVertex
 10
30.73025512695312
 20
-16.05183982849121
 30
175.0065460205078
 70
   192
  0
VERTEX
  5
23B
330
138
100
AcDbEntity
  8
BASE
100
AcDbVertex
100
AcDbPolyFaceMeshVertex
 10
31.2834358215332
 20
-16.47673606872559
 30
175.0065460205078
 70
   192
  0
VERTEX
  5
23C
330
138
100
AcDbEntity
  8
BASE
100
AcDbVertex
100
AcDbPolyFaceMeshVertex
 10
30.47816467285156
 20
-16.9311408996582
 30
175.0065460205078
 70
   192
  0
VERTEX
  5
23D
330
138
100
AcDbEntity
  8
BASE
100
AcDbVertex
100
AcDbPolyFaceMeshVertex
 10
30.91585350036621
 20
-17.70679473876953
 30
175.0065460205078
 70
   192
  0
VERTEX
  5
23E
330
138
100
AcDbEntity
  8
BASE
100
AcDbVertex
100
AcDbPolyFaceMeshVertex
 10
31.36117553710938
 20
-17.16991806030273
 30
175.0065460205078
 70
   192
  0
VERTEX
  5
23F
330
138
100
AcDbEntity
  8
BASE
100
AcDbVertex
100
AcDbPolyFaceMeshVertex
 10
31.2834358215332
 20
-16.47673606872559
 30
175.0065460205078
 70
   192
  0
VERTEX
  5
240
330
138
100
AcDbEntity
  8
BASE
100
AcDbVertex
100
AcDbPolyFaceMeshVertex
 10
26.82867431640625
 20
-16.15549087524414
 30
175.0065460205078
 70
   192
  0
VERTEX
  5
241
330
138
100
AcDbEntity
  8
BASE
100
AcDbVertex
100
AcDbPolyFaceMeshVertex
 10
26.13889122009277
 20
-16.05183982849121
 30
175.0065460205078
 70
   192
  0
VERTEX
  5
242
330
138
100
AcDbEntity
  8
BASE
100
AcDbVertex
100
AcDbPolyFaceMeshVertex
 10
25.5857105255127
 20
-16.47673606872559
 30
175.0065460205078
 70
   192
  0
VERTEX
  5
243
330
138
100
AcDbEntity
  8
BASE
100
AcDbVertex
100
AcDbPolyFaceMeshVertex
 10
26.39098167419434
 20
-16.9311408996582
 30
175.0065460205078
 70
   192
  0
VERTEX
  5
244
330
138
100
AcDbEntity
  8
BASE
100
AcDbVertex
100
AcDbPolyFaceMeshVertex
 10
26.39098167419434
 20
-16.9311408996582
 30
175.0065460205078
 70
   192
  0
VERTEX
  5
245
330
138
100
AcDbEntity
  8
BASE
100
AcDbVertex
100
AcDbPolyFaceMeshVertex
 10
25.5857105255127
 20
-16.47673606872559
 30
175.0065460205078
 70
   192
  0
VERTEX
  5
246
330
138
100
AcDbEntity
  8
BASE
100
AcDbVertex
100
AcDbPolyFaceMeshVertex
 10
25.50797080993652
 20
-17.16991806030273
 30
175.0065460205078
 70
   192
  0
VERTEX
  5
247
330
138
100
AcDbEntity
  8
BASE
100
AcDbVertex
100
AcDbPolyFaceMeshVertex
 10
25.95328903198242
 20
-17.70679473876953
 30
175.0065460205078
 70
   192
  0
VERTEX
  5
248
330
138
100
AcDbEntity
  8
BASE
100
AcDbVertex
100
AcDbPolyFaceMeshVertex
 10
27.53039169311523
 20
-20.50307464599609
 30
175.0065460205078
 70
   192
  0
VERTEX
  5
249
330
138
100
AcDbEntity
  8
BASE
100
AcDbVertex
100
AcDbPolyFaceMeshVertex
 10
27.7855224609375
 20
-21.15227127075195
 30
175.0065460205078
 70
   192
  0
VERTEX
  5
24A
330
138
100
AcDbEntity
  8
BASE
100
AcDbVertex
100
AcDbPolyFaceMeshVertex
 10
28.43008041381836
 20
-21.41888999938965
 30
175.0065460205078
 70
   192
  0
VERTEX
  5
24B
330
138
100
AcDbEntity
  8
BASE
100
AcDbVertex
100
AcDbPolyFaceMeshVertex
 10
28.42097091674805
 20
-20.49430084228516
 30
175.0065460205078
 70
   192
  0
VERTEX
  5
24C
330
138
100
AcDbEntity
  8
BASE
100
AcDbVertex
100
AcDbPolyFaceMeshVertex
 10
28.42097091674805
 20
-20.49430084228516
 30
175.0065460205078
 70
   192
  0
VERTEX
  5
24D
330
138
100
AcDbEntity
  8
BASE
100
AcDbVertex
100
AcDbPolyFaceMeshVertex
 10
28.43008041381836
 20
-21.41888999938965
 30
175.0065460205078
 70
   192
  0
VERTEX
  5
24E
330
138
100
AcDbEntity
  8
BASE
100
AcDbVertex
100
AcDbPolyFaceMeshVertex
 10
29.06926536560059
 20
-21.13962173461914
 30
175.0065460205078
 70
   192
  0
VERTEX
  5
24F
330
138
100
AcDbEntity
  8
BASE
100
AcDbVertex
100
AcDbPolyFaceMeshVertex
 10
29.31155395507812
 20
-20.48552513122559
 30
175.0065460205078
 70
   192
  0
VERTEX
  5
250
330
138
100
AcDbEntity
  8
BASE
100
AcDbVertex
100
AcDbPolyFaceMeshVertex
 10
27.96479415893555
 20
-27.99826431274414
 30
178.5574951171875
 70
   192
  0
VERTEX
  5
251
330
138
100
AcDbEntity
  8
BASE
100
AcDbVertex
100
AcDbPolyFaceMeshVertex
 10
27.96479415893555
 20
-27.38893508911133
 30
179.1209259033203
 70
   192
  0
VERTEX
  5
252
330
138
100
AcDbEntity
  8
BASE
100
AcDbVertex
100
AcDbPolyFaceMeshVertex
 10
27.57597351074219
 20
-20.92903900146484
 30
169.5583801269531
 70
   192
  0
VERTEX
  5
253
330
138
100
AcDbEntity
  8
BASE
100
AcDbVertex
100
AcDbPolyFaceMeshVertex
 10
27.57597351074219
 20
-20.91014671325684
 30
165.8572082519531
 70
   192
  0
VERTEX
  5
254
330
138
100
AcDbEntity
  8
BASE
100
AcDbVertex
100
AcDbPolyFaceMeshVertex
 10
29.26948165893555
 20
-20.91014671325684
 30
165.8572082519531
 70
   192
  0
VERTEX
  5
255
330
138
100
AcDbEntity
  8
BASE
100
AcDbVertex
100
AcDbPolyFaceMeshVertex
 10
29.26948165893555
 20
-20.92903900146484
 30
169.5583801269531
 70
   192
  0
VERTEX
  5
256
330
138
100
AcDbEntity
  8
BASE
100
AcDbVertex
100
AcDbPolyFaceMeshVertex
 10
28.88066101074219
 20
-27.38893508911133
 30
179.1209259033203
 70
   192
  0
VERTEX
  5
257
330
138
100
AcDbEntity
  8
BASE
100
AcDbVertex
100
AcDbPolyFaceMeshVertex
 10
28.88066101074219
 20
-27.99826431274414
 30
178.5574951171875
 70
   192
  0
VERTEX
  5
258
330
138
100
AcDbEntity
  8
BASE
100
AcDbVertex
100
AcDbPolyFaceMeshVertex
 10
27.57597351074219
 20
-20.91014671325684
 30
165.8572082519531
 70
   192
  0
VERTEX
  5
259
330
138
100
AcDbEntity
  8
BASE
100
AcDbVertex
100
AcDbPolyFaceMeshVertex
 10
29.26948165893555
 20
-20.91014671325684
 30
165.8572082519531
 70
   192
  0
VERTEX
  5
25A
330
138
100
AcDbEntity
  8
BASE
100
AcDbVertex
100
AcDbPolyFaceMeshVertex
 10
28.88066101074219
 20
-27.99826431274414
 30
178.5574951171875
 70
   192
  0
VERTEX
  5
25B
330
138
100
AcDbEntity
  8
BASE
100
AcDbVertex
100
AcDbPolyFaceMeshVertex
 10
27.96479415893555
 20
-27.99826431274414
 30
178.5574951171875
 70
   192
  0
VERTEX
  5
25C
330
138
100
AcDbEntity
  8
BASE
100
AcDbVertex
100
AcDbPolyFaceMeshVertex
 10
28.88066101074219
 20
-27.38893508911133
 30
179.1209259033203
 70
   192
  0
VERTEX
  5
25D
330
138
100
AcDbEntity
  8
BASE
100
AcDbVertex
100
AcDbPolyFaceMeshVertex
 10
27.96479415893555
 20
-27.38893508911133
 30
179.1209259033203
 70
   192
  0
VERTEX
  5
25E
330
138
100
AcDbEntity
  8
BASE
100
AcDbVertex
100
AcDbPolyFaceMeshVertex
 10
27.57597351074219
 20
-20.92903900146484
 30
169.5583801269531
 70
   192
  0
VERTEX
  5
25F
330
138
100
AcDbEntity
  8
BASE
100
AcDbVertex
100
AcDbPolyFaceMeshVertex
 10
29.26948165893555
 20
-20.92903900146484
 30
169.5583801269531
 70
   192
  0
VERTEX
  5
260
330
138
100
AcDbEntity
  8
BASE
100
AcDbVertex
100
AcDbPolyFaceMeshVertex
 10
27.96479415893555
 20
-27.38893508911133
 30
179.1209259033203
 70
   192
  0
VERTEX
  5
261
330
138
100
AcDbEntity
  8
BASE
100
AcDbVertex
100
AcDbPolyFaceMeshVertex
 10
28.88066101074219
 20
-27.38893508911133
 30
179.1209259033203
 70
   192
  0
VERTEX
  5
262
330
138
100
AcDbEntity
  8
BASE
100
AcDbVertex
100
AcDbPolyFaceMeshVertex
 10
28.88066101074219
 20
-27.99826431274414
 30
178.5574951171875
 70
   192
  0
VERTEX
  5
263
330
138
100
AcDbEntity
  8
BASE
100
AcDbVertex
100
AcDbPolyFaceMeshVertex
 10
27.96479415893555
 20
-27.99826431274414
 30
178.5574951171875
 70
   192
  0
VERTEX
  5
264
330
138
100
AcDbEntity
  8
BASE
100
AcDbVertex
100
AcDbPolyFaceMeshVertex
 10
20.46489715576172
 20
-12.51691246032715
 30
163.0529479980469
 70
   192
  0
VERTEX
  5
265
330
138
100
AcDbEntity
  8
BASE
100
AcDbVertex
100
AcDbPolyFaceMeshVertex
 10
20.97595977783203
 20
-12.84871673583984
 30
163.6163787841797
 70
   192
  0
VERTEX
  5
266
330
138
100
AcDbEntity
  8
BASE
100
AcDbVertex
100
AcDbPolyFaceMeshVertex
 10
26.60581588745117
 20
-16.0402946472168
 30
154.0538330078125
 70
   192
  0
VERTEX
  5
267
330
138
100
AcDbEntity
  8
BASE
100
AcDbVertex
100
AcDbPolyFaceMeshVertex
 10
26.62166213989258
 20
-16.05057907104492
 30
150.3526611328125
 70
   192
  0
VERTEX
  5
268
330
138
100
AcDbEntity
  8
BASE
100
AcDbVertex
100
AcDbPolyFaceMeshVertex
 10
25.6994743347168
 20
-17.47098159790039
 30
150.3526611328125
 70
   192
  0
VERTEX
  5
269
330
138
100
AcDbEntity
  8
BASE
100
AcDbVertex
100
AcDbPolyFaceMeshVertex
 10
25.68362998962402
 20
-17.460693359375
 30
154.0538330078125
 70
   192
  0
VERTEX
  5
26A
330
138
100
AcDbEntity
  8
BASE
100
AcDbVertex
100
AcDbPolyFaceMeshVertex
 10
20.47723197937012
 20
-13.61688423156738
 30
163.6163787841797
 70
   192
  0
VERTEX
  5
26B
330
138
100
AcDbEntity
  8
BASE
100
AcDbVertex
100
AcDbPolyFaceMeshVertex
 10
19.96616744995117
 20
-13.28507804870605
 30
163.0529479980469
 70
   192
  0
VERTEX
  5
26C
330
138
100
AcDbEntity
  8
BASE
100
AcDbVertex
100
AcDbPolyFaceMeshVertex
 10
26.62166213989258
 20
-16.05057907104492
 30
150.3526611328125
 70
   192
  0
VERTEX
  5
26D
330
138
100
AcDbEntity
  8
BASE
100
AcDbVertex
100
AcDbPolyFaceMeshVertex
 10
25.6994743347168
 20
-17.47098159790039
 30
150.3526611328125
 70
   192
  0
VERTEX
  5
26E
330
138
100
AcDbEntity
  8
BASE
100
AcDbVertex
100
AcDbPolyFaceMeshVertex
 10
19.96616744995117
 20
-13.28507804870605
 30
163.0529479980469
 70
   192
  0
VERTEX
  5
26F
330
138
100
AcDbEntity
  8
BASE
100
AcDbVertex
100
AcDbPolyFaceMeshVertex
 10
20.46489715576172
 20
-12.51691246032715
 30
163.0529479980469
 70
   192
  0
VERTEX
  5
270
330
138
100
AcDbEntity
  8
BASE
100
AcDbVertex
100
AcDbPolyFaceMeshVertex
 10
20.47723197937012
 20
-13.61688423156738
 30
163.6163787841797
 70
   192
  0
VERTEX
  5
271
330
138
100
AcDbEntity
  8
BASE
100
AcDbVertex
100
AcDbPolyFaceMeshVertex
 10
20.97595977783203
 20
-12.84871673583984
 30
163.6163787841797
 70
   192
  0
VERTEX
  5
272
330
138
100
AcDbEntity
  8
BASE
100
AcDbVertex
100
AcDbPolyFaceMeshVertex
 10
26.60581588745117
 20
-16.0402946472168
 30
154.0538330078125
 70
   192
  0
VERTEX
  5
273
330
138
100
AcDbEntity
  8
BASE
100
AcDbVertex
100
AcDbPolyFaceMeshVertex
 10
25.68362998962402
 20
-17.460693359375
 30
154.0538330078125
 70
   192
  0
VERTEX
  5
274
330
138
100
AcDbEntity
  8
BASE
100
AcDbVertex
100
AcDbPolyFaceMeshVertex
 10
20.97595977783203
 20
-12.84871673583984
 30
163.6163787841797
 70
   192
  0
VERTEX
  5
275
330
138
100
AcDbEntity
  8
BASE
100
AcDbVertex
100
AcDbPolyFaceMeshVertex
 10
20.47723197937012
 20
-13.61688423156738
 30
163.6163787841797
 70
   192
  0
VERTEX
  5
276
330
138
100
AcDbEntity
  8
BASE
100
AcDbVertex
100
AcDbPolyFaceMeshVertex
 10
19.96616744995117
 20
-13.28507804870605
 30
163.0529479980469
 70
   192
  0
VERTEX
  5
277
330
138
100
AcDbEntity
  8
BASE
100
AcDbVertex
100
AcDbPolyFaceMeshVertex
 10
20.46489715576172
 20
-12.51691246032715
 30
163.0529479980469
 70
   192
  0
VERTEX
  5
278
330
138
100
AcDbEntity
  8
BASE
100
AcDbVertex
100
AcDbPolyFaceMeshVertex
 10
36.45444488525391
 20
-12.44302558898926
 30
146.2550354003906
 70
   192
  0
VERTEX
  5
279
330
138
100
AcDbEntity
  8
BASE
100
AcDbVertex
100
AcDbPolyFaceMeshVertex
 10
35.94338226318359
 20
-12.77483177185059
 30
146.8184509277344
 70
   192
  0
VERTEX
  5
27A
330
138
100
AcDbEntity
  8
BASE
100
AcDbVertex
100
AcDbPolyFaceMeshVertex
 10
30.31352615356445
 20
-15.96640777587891
 30
137.2558898925781
 70
   192
  0
VERTEX
  5
27B
330
138
100
AcDbEntity
  8
BASE
100
AcDbVertex
100
AcDbPolyFaceMeshVertex
 10
30.29767799377441
 20
-15.97669506072998
 30
133.5547332763672
 70
   192
  0
VERTEX
  5
27C
330
138
100
AcDbEntity
  8
BASE
100
AcDbVertex
100
AcDbPolyFaceMeshVertex
 10
31.21986770629883
 20
-17.3970947265625
 30
133.5547332763672
 70
   192
  0
VERTEX
  5
27D
330
138
100
AcDbEntity
  8
BASE
100
AcDbVertex
100
AcDbPolyFaceMeshVertex
 10
31.2357120513916
 20
-17.38680648803711
 30
137.2558898925781
 70
   192
  0
VERTEX
  5
27E
330
138
100
AcDbEntity
  8
BASE
100
AcDbVertex
100
AcDbPolyFaceMeshVertex
 10
36.44211196899414
 20
-13.54299926757812
 30
146.8184509277344
 70
   192
  0
VERTEX
  5
27F
330
138
100
AcDbEntity
  8
BASE
100
AcDbVertex
100
AcDbPolyFaceMeshVertex
 10
36.95317459106445
 20
-13.21119403839111
 30
146.2550354003906
 70
   192
  0
VERTEX
  5
280
330
138
100
AcDbEntity
  8
BASE
100
AcDbVertex
100
AcDbPolyFaceMeshVertex
 10
30.29767799377441
 20
-15.97669506072998
 30
133.5547332763672
 70
   192
  0
VERTEX
  5
281
330
138
100
AcDbEntity
  8
BASE
100
AcDbVertex
100
AcDbPolyFaceMeshVertex
 10
31.21986770629883
 20
-17.3970947265625
 30
133.5547332763672
 70
   192
  0
VERTEX
  5
282
330
138
100
AcDbEntity
  8
BASE
100
AcDbVertex
100
AcDbPolyFaceMeshVertex
 10
36.95317459106445
 20
-13.21119403839111
 30
146.2550354003906
 70
   192
  0
VERTEX
  5
283
330
138
100
AcDbEntity
  8
BASE
100
AcDbVertex
100
AcDbPolyFaceMeshVertex
 10
36.45444488525391
 20
-12.44302558898926
 30
146.2550354003906
 70
   192
  0
VERTEX
  5
284
330
138
100
AcDbEntity
  8
BASE
100
AcDbVertex
100
AcDbPolyFaceMeshVertex
 10
36.44211196899414
 20
-13.54299926757812
 30
146.8184509277344
 70
   192
  0
VERTEX
  5
285
330
138
100
AcDbEntity
  8
BASE
100
AcDbVertex
100
AcDbPolyFaceMeshVertex
 10
35.94338226318359
 20
-12.77483177185059
 30
146.8184509277344
 70
   192
  0
VERTEX
  5
286
330
138
100
AcDbEntity
  8
BASE
100
AcDbVertex
100
AcDbPolyFaceMeshVertex
 10
30.31352615356445
 20
-15.96640777587891
 30
137.2558898925781
 70
   192
  0
VERTEX
  5
287
330
138
100
AcDbEntity
  8
BASE
100
AcDbVertex
100
AcDbPolyFaceMeshVertex
 10
31.2357120513916
 20
-17.38680648803711
 30
137.2558898925781
 70
   192
  0
VERTEX
  5
288
330
138
100
AcDbEntity
  8
BASE
100
AcDbVertex
100
AcDbPolyFaceMeshVertex
 10
35.94338226318359
 20
-12.77483177185059
 30
146.8184509277344
 70
   192
  0
VERTEX
  5
289
330
138
100
AcDbEntity
  8
BASE
100
AcDbVertex
100
AcDbPolyFaceMeshVertex
 10
36.44211196899414
 20
-13.54299926757812
 30
146.8184509277344
 70
   192
  0
VERTEX
  5
28A
330
138
100
AcDbEntity
  8
BASE
100
AcDbVertex
100
AcDbPolyFaceMeshVertex
 10
36.95317459106445
 20
-13.21119403839111
 30
146.2550354003906
 70
   192
  0
VERTEX
  5
28B
330
138
100
AcDbEntity
  8
BASE
100
AcDbVertex
100
AcDbPolyFaceMeshVertex
 10
36.45444488525391
 20
-12.44302558898926
 30
146.2550354003906
 70
   192
  0
VERTEX
  5
28C
330
138
100
AcDbEntity
  8
BASE
100
AcDbFaceRecord
 10
0.0
 20
0.0
 30
0.0
 70
   128
 71
     1
 72
     2
 73
     3
 74
     4
  0
VERTEX
  5
28D
330
138
100
AcDbEntity
  8
BASE
100
AcDbFaceRecord
 10
0.0
 20
0.0
 30
0.0
 70
   128
 71
     5
 72
     6
 73
     7
 74
     8
  0
VERTEX
  5
28E
330
138
100
AcDbEntity
  8
BASE
100
AcDbFaceRecord
 10
0.0
 20
0.0
 30
0.0
 70
   128
 71
     9
 72
    10
 73
    11
 74
    12
  0
VERTEX
  5
28F
330
138
100
AcDbEntity
  8
BASE
100
AcDbFaceRecord
 10
0.0
 20
0.0
 30
0.0
 70
   128
 71
    13
 72
    14
 73
    15
 74
    16
  0
VERTEX
  5
290
330
138
100
AcDbEntity
  8
BASE
100
AcDbFaceRecord
 10
0.0
 20
0.0
 30
0.0
 70
   128
 71
    17
 72
    18
 73
    19
 74
    20
  0
VERTEX
  5
291
330
138
100
AcDbEntity
  8
BASE
100
AcDbFaceRecord
 10
0.0
 20
0.0
 30
0.0
 70
   128
 71
    21
 72
    22
 73
    23
 74
    24
  0
VERTEX
  5
292
330
138
100
AcDbEntity
  8
BASE
100
AcDbFaceRecord
 10
0.0
 20
0.0
 30
0.0
 70
   128
 71
    25
 72
    26
 73
    27
 74
    27
  0
VERTEX
  5
293
330
138
100
AcDbEntity
  8
BASE
100
AcDbFaceRecord
 10
0.0
 20
0.0
 30
0.0
 70
   128
 71
    28
 72
    29
 73
    30
 74
    31
  0
VERTEX
  5
294
330
138
100
AcDbEntity
  8
BASE
100
AcDbFaceRecord
 10
0.0
 20
0.0
 30
0.0
 70
   128
 71
    32
 72
    33
 73
    34
 74
    35
  0
VERTEX
  5
295
330
138
100
AcDbEntity
  8
BASE
100
AcDbFaceRecord
 10
0.0
 20
0.0
 30
0.0
 70
   128
 71
    36
 72
    37
 73
    38
 74
    39
  0
VERTEX
  5
296
330
138
100
AcDbEntity
  8
BASE
100
AcDbFaceRecord
 10
0.0
 20
0.0
 30
0.0
 70
   128
 71
    40
 72
    41
 73
    42
 74
    43
  0
VERTEX
  5
297
330
138
100
AcDbEntity
  8
BASE
100
AcDbFaceRecord
 10
0.0
 20
0.0
 30
0.0
 70
   128
 71
    44
 72
    45
 73
    46
 74
    47
  0
VERTEX
  5
298
330
138
100
AcDbEntity
  8
BASE
100
AcDbFaceRecord
 10
0.0
 20
0.0
 30
0.0
 70
   128
 71
    48
 72
    49
 73
    50
 74
    51
  0
VERTEX
  5
299
330
138
100
AcDbEntity
  8
BASE
100
AcDbFaceRecord
 10
0.0
 20
0.0
 30
0.0
 70
   128
 71
    52
 72
    53
 73
    54
 74
    55
  0
VERTEX
  5
29A
330
138
100
AcDbEntity
  8
BASE
100
AcDbFaceRecord
 10
0.0
 20
0.0
 30
0.0
 70
   128
 71
    56
 72
    57
 73
    58
 74
    59
  0
VERTEX
  5
29B
330
138
100
AcDbEntity
  8
BASE
100
AcDbFaceRecord
 10
0.0
 20
0.0
 30
0.0
 70
   128
 71
    60
 72
    61
 73
    62
 74
    63
  0
VERTEX
  5
29C
330
138
100
AcDbEntity
  8
BASE
100
AcDbFaceRecord
 10
0.0
 20
0.0
 30
0.0
 70
   128
 71
    64
 72
    65
 73
    66
 74
    67
  0
VERTEX
  5
29D
330
138
100
AcDbEntity
  8
BASE
100
AcDbFaceRecord
 10
0.0
 20
0.0
 30
0.0
 70
   128
 71
    68
 72
    69
 73
    70
 74
    71
  0
VERTEX
  5
29E
330
138
100
AcDbEntity
  8
BASE
100
AcDbFaceRecord
 10
0.0
 20
0.0
 30
0.0
 70
   128
 71
    72
 72
    73
 73
    74
 74
    75
  0
VERTEX
  5
29F
330
138
100
AcDbEntity
  8
BASE
100
AcDbFaceRecord
 10
0.0
 20
0.0
 30
0.0
 70
   128
 71
    76
 72
    77
 73
    78
 74
    79
  0
VERTEX
  5
2A0
330
138
100
AcDbEntity
  8
BASE
100
AcDbFaceRecord
 10
0.0
 20
0.0
 30
0.0
 70
   128
 71
    80
 72
    81
 73
    82
 74
    83
  0
VERTEX
  5
2A1
330
138
100
AcDbEntity
  8
BASE
100
AcDbFaceRecord
 10
0.0
 20
0.0
 30
0.0
 70
   128
 71
    84
 72
    85
 73
    86
 74
    87
  0
VERTEX
  5
2A2
330
138
100
AcDbEntity
  8
BASE
100
AcDbFaceRecord
 10
0.0
 20
0.0
 30
0.0
 70
   128
 71
    88
 72
    89
 73
    90
 74
    91
  0
VERTEX
  5
2A3
330
138
100
AcDbEntity
  8
BASE
100
AcDbFaceRecord
 10
0.0
 20
0.0
 30
0.0
 70
   128
 71
    92
 72
    93
 73
    94
 74
    95
  0
VERTEX
  5
2A4
330
138
100
AcDbEntity
  8
BASE
100
AcDbFaceRecord
 10
0.0
 20
0.0
 30
0.0
 70
   128
 71
    96
 72
    97
 73
    98
 74
    99
  0
VERTEX
  5
2A5
330
138
100
AcDbEntity
  8
BASE
100
AcDbFaceRecord
 10
0.0
 20
0.0
 30
0.0
 70
   128
 71
   100
 72
   101
 73
   102
 74
   103
  0
VERTEX
  5
2A6
330
138
100
AcDbEntity
  8
BASE
100
AcDbFaceRecord
 10
0.0
 20
0.0
 30
0.0
 70
   128
 71
   104
 72
   105
 73
   106
 74
   107
  0
VERTEX
  5
2A7
330
138
100
AcDbEntity
  8
BASE
100
AcDbFaceRecord
 10
0.0
 20
0.0
 30
0.0
 70
   128
 71
   108
 72
   109
 73
   110
 74
   111
  0
VERTEX
  5
2A8
330
138
100
AcDbEntity
  8
BASE
100
AcDbFaceRecord
 10
0.0
 20
0.0
 30
0.0
 70
   128
 71
   112
 72
   113
 73
   114
 74
   115
  0
VERTEX
  5
2A9
330
138
100
AcDbEntity
  8
BASE
100
AcDbFaceRecord
 10
0.0
 20
0.0
 30
0.0
 70
   128
 71
   116
 72
   117
 73
   118
 74
   119
  0
VERTEX
  5
2AA
330
138
100
AcDbEntity
  8
BASE
100
AcDbFaceRecord
 10
0.0
 20
0.0
 30
0.0
 70
   128
 71
   120
 72
   121
 73
   122
 74
   123
  0
VERTEX
  5
2AB
330
138
100
AcDbEntity
  8
BASE
100
AcDbFaceRecord
 10
0.0
 20
0.0
 30
0.0
 70
   128
 71
   124
 72
   125
 73
   126
 74
   127
  0
VERTEX
  5
2AC
330
138
100
AcDbEntity
  8
BASE
100
AcDbFaceRecord
 10
0.0
 20
0.0
 30
0.0
 70
   128
 71
   128
 72
   129
 73
   130
 74
   131
  0
VERTEX
  5
2AD
330
138
100
AcDbEntity
  8
BASE
100
AcDbFaceRecord
 10
0.0
 20
0.0
 30
0.0
 70
   128
 71
   132
 72
   133
 73
   134
 74
   135
  0
VERTEX
  5
2AE
330
138
100
AcDbEntity
  8
BASE
100
AcDbFaceRecord
 10
0.0
 20
0.0
 30
0.0
 70
   128
 71
   136
 72
   137
 73
   138
 74
   139
  0
VERTEX
  5
2AF
330
138
100
AcDbEntity
  8
BASE
100
AcDbFaceRecord
 10
0.0
 20
0.0
 30
0.0
 70
   128
 71
   140
 72
   141
 73
   142
 74
   143
  0
VERTEX
  5
2B0
330
138
100
AcDbEntity
  8
BASE
100
AcDbFaceRecord
 10
0.0
 20
0.0
 30
0.0
 70
   128
 71
   144
 72
   145
 73
   146
 74
   147
  0
VERTEX
  5
2B1
330
138
100
AcDbEntity
  8
BASE
100
AcDbFaceRecord
 10
0.0
 20
0.0
 30
0.0
 70
   128
 71
   148
 72
   149
 73
   150
 74
   151
  0
VERTEX
  5
2B2
330
138
100
AcDbEntity
  8
BASE
100
AcDbFaceRecord
 10
0.0
 20
0.0
 30
0.0
 70
   128
 71
   152
 72
   153
 73
   154
 74
   155
  0
VERTEX
  5
2B3
330
138
100
AcDbEntity
  8
BASE
100
AcDbFaceRecord
 10
0.0
 20
0.0
 30
0.0
 70
   128
 71
   156
 72
   157
 73
   158
 74
   159
  0
VERTEX
  5
2B4
330
138
100
AcDbEntity
  8
BASE
100
AcDbFaceRecord
 10
0.0
 20
0.0
 30
0.0
 70
   128
 71
   160
 72
   161
 73
   162
 74
   163
  0
VERTEX
  5
2B5
330
138
100
AcDbEntity
  8
BASE
100
AcDbFaceRecord
 10
0.0
 20
0.0
 30
0.0
 70
   128
 71
   164
 72
   165
 73
   166
 74
   167
  0
VERTEX
  5
2B6
330
138
100
AcDbEntity
  8
BASE
100
AcDbFaceRecord
 10
0.0
 20
0.0
 30
0.0
 70
   128
 71
   168
 72
   169
 73
   170
 74
   171
  0
VERTEX
  5
2B7
330
138
100
AcDbEntity
  8
BASE
100
AcDbFaceRecord
 10
0.0
 20
0.0
 30
0.0
 70
   128
 71
   172
 72
   173
 73
   174
 74
   175
  0
VERTEX
  5
2B8
330
138
100
AcDbEntity
  8
BASE
100
AcDbFaceRecord
 10
0.0
 20
0.0
 30
0.0
 70
   128
 71
   176
 72
   177
 73
   178
 74
   179
  0
VERTEX
  5
2B9
330
138
100
AcDbEntity
  8
BASE
100
AcDbFaceRecord
 10
0.0
 20
0.0
 30
0.0
 70
   128
 71
   180
 72
   181
 73
   182
 74
   183
  0
VERTEX
  5
2BA
330
138
100
AcDbEntity
  8
BASE
100
AcDbFaceRecord
 10
0.0
 20
0.0
 30
0.0
 70
   128
 71
   184
 72
   185
 73
   186
 74
   187
  0
VERTEX
  5
2BB
330
138
100
AcDbEntity
  8
BASE
100
AcDbFaceRecord
 10
0.0
 20
0.0
 30
0.0
 70
   128
 71
   188
 72
   189
 73
   190
 74
   191
  0
VERTEX
  5
2BC
330
138
100
AcDbEntity
  8
BASE
100
AcDbFaceRecord
 10
0.0
 20
0.0
 30
0.0
 70
   128
 71
   192
 72
   193
 73
   194
 74
   195
  0
VERTEX
  5
2BD
330
138
100
AcDbEntity
  8
BASE
100
AcDbFaceRecord
 10
0.0
 20
0.0
 30
0.0
 70
   128
 71
   196
 72
   197
 73
   198
 74
   199
  0
VERTEX
  5
2BE
330
138
100
AcDbEntity
  8
BASE
100
AcDbFaceRecord
 10
0.0
 20
0.0
 30
0.0
 70
   128
 71
   200
 72
   201
 73
   202
 74
   203
  0
VERTEX
  5
2BF
330
138
100
AcDbEntity
  8
BASE
100
AcDbFaceRecord
 10
0.0
 20
0.0
 30
0.0
 70
   128
 71
   204
 72
   205
 73
   206
 74
   207
  0
VERTEX
  5
2C0
330
138
100
AcDbEntity
  8
BASE
100
AcDbFaceRecord
 10
0.0
 20
0.0
 30
0.0
 70
   128
 71
   208
 72
   209
 73
   210
 74
   211
  0
VERTEX
  5
2C1
330
138
100
AcDbEntity
  8
BASE
100
AcDbFaceRecord
 10
0.0
 20
0.0
 30
0.0
 70
   128
 71
   212
 72
   213
 73
   214
 74
   215
  0
VERTEX
  5
2C2
330
138
100
AcDbEntity
  8
BASE
100
AcDbFaceRecord
 10
0.0
 20
0.0
 30
0.0
 70
   128
 71
   216
 72
   217
 73
   218
 74
   219
  0
VERTEX
  5
2C3
330
138
100
AcDbEntity
  8
BASE
100
AcDbFaceRecord
 10
0.0
 20
0.0
 30
0.0
 70
   128
 71
   220
 72
   221
 73
   222
 74
   223
  0
VERTEX
  5
2C4
330
138
100
AcDbEntity
  8
BASE
100
AcDbFaceRecord
 10
0.0
 20
0.0
 30
0.0
 70
   128
 71
   224
 72
   225
 73
   226
 74
   227
  0
VERTEX
  5
2C5
330
138
100
AcDbEntity
  8
BASE
100
AcDbFaceRecord
 10
0.0
 20
0.0
 30
0.0
 70
   128
 71
   228
 72
   229
 73
   230
 74
   231
  0
VERTEX
  5
2C6
330
138
100
AcDbEntity
  8
BASE
100
AcDbFaceRecord
 10
0.0
 20
0.0
 30
0.0
 70
   128
 71
   232
 72
   233
 73
   234
 74
   235
  0
VERTEX
  5
2C7
330
138
100
AcDbEntity
  8
BASE
100
AcDbFaceRecord
 10
0.0
 20
0.0
 30
0.0
 70
   128
 71
   236
 72
   237
 73
   238
 74
   239
  0
VERTEX
  5
2C8
330
138
100
AcDbEntity
  8
BASE
100
AcDbFaceRecord
 10
0.0
 20
0.0
 30
0.0
 70
   128
 71
   240
 72
   241
 73
   242
 74
   243
  0
VERTEX
  5
2C9
330
138
100
AcDbEntity
  8
BASE
100
AcDbFaceRecord
 10
0.0
 20
0.0
 30
0.0
 70
   128
 71
   244
 72
   245
 73
   246
 74
   247
  0
VERTEX
  5
2CA
330
138
100
AcDbEntity
  8
BASE
100
AcDbFaceRecord
 10
0.0
 20
0.0
 30
0.0
 70
   128
 71
   248
 72
   249
 73
   250
 74
   251
  0
VERTEX
  5
2CB
330
138
100
AcDbEntity
  8
BASE
100
AcDbFaceRecord
 10
0.0
 20
0.0
 30
0.0
 70
   128
 71
   252
 72
   253
 73
   254
 74
   255
  0
VERTEX
  5
2CC
330
138
100
AcDbEntity
  8
BASE
100
AcDbFaceRecord
 10
0.0
 20
0.0
 30
0.0
 70
   128
 71
   256
 72
   257
 73
   258
 74
   259
  0
VERTEX
  5
2CD
330
138
100
AcDbEntity
  8
BASE
100
AcDbFaceRecord
 10
0.0
 20
0.0
 30
0.0
 70
   128
 71
   260
 72
   261
 73
   262
 74
   263
  0
VERTEX
  5
2CE
330
138
100
AcDbEntity
  8
BASE
100
AcDbFaceRecord
 10
0.0
 20
0.0
 30
0.0
 70
   128
 71
   264
 72
   265
 73
   266
 74
   267
  0
VERTEX
  5
2CF
330
138
100
AcDbEntity
  8
BASE
100
AcDbFaceRecord
 10
0.0
 20
0.0
 30
0.0
 70
   128
 71
   268
 72
   269
 73
   270
 74
   271
  0
VERTEX
  5
2D0
330
138
100
AcDbEntity
  8
BASE
100
AcDbFaceRecord
 10
0.0
 20
0.0
 30
0.0
 70
   128
 71
   272
 72
   273
 73
   274
 74
   275
  0
VERTEX
  5
2D1
330
138
100
AcDbEntity
  8
BASE
100
AcDbFaceRecord
 10
0.0
 20
0.0
 30
0.0
 70
   128
 71
   276
 72
   277
 73
   278
 74
   279
  0
VERTEX
  5
2D2
330
138
100
AcDbEntity
  8
BASE
100
AcDbFaceRecord
 10
0.0
 20
0.0
 30
0.0
 70
   128
 71
   280
 72
   281
 73
   282
 74
   283
  0
VERTEX
  5
2D3
330
138
100
AcDbEntity
  8
BASE
100
AcDbFaceRecord
 10
0.0
 20
0.0
 30
0.0
 70
   128
 71
   284
 72
   285
 73
   286
 74
   287
  0
VERTEX
  5
2D4
330
138
100
AcDbEntity
  8
BASE
100
AcDbFaceRecord
 10
0.0
 20
0.0
 30
0.0
 70
   128
 71
   288
 72
   289
 73
   290
 74
   291
  0
VERTEX
  5
2D5
330
138
100
AcDbEntity
  8
BASE
100
AcDbFaceRecord
 10
0.0
 20
0.0
 30
0.0
 70
   128
 71
   292
 72
   293
 73
   294
 74
   295
  0
VERTEX
  5
2D6
330
138
100
AcDbEntity
  8
BASE
100
AcDbFaceRecord
 10
0.0
 20
0.0
 30
0.0
 70
   128
 71
   296
 72
   297
 73
   298
 74
   299
  0
VERTEX
  5
2D7
330
138
100
AcDbEntity
  8
BASE
100
AcDbFaceRecord
 10
0.0
 20
0.0
 30
0.0
 70
   128
 71
   300
 72
   301
 73
   302
 74
   303
  0
VERTEX
  5
2D8
330
138
100
AcDbEntity
  8
BASE
100
AcDbFaceRecord
 10
0.0
 20
0.0
 30
0.0
 70
   128
 71
   304
 72
   305
 73
   306
 74
   307
  0
VERTEX
  5
2D9
330
138
100
AcDbEntity
  8
BASE
100
AcDbFaceRecord
 10
0.0
 20
0.0
 30
0.0
 70
   128
 71
   308
 72
   309
 73
   310
 74
   311
  0
VERTEX
  5
2DA
330
138
100
AcDbEntity
  8
BASE
100
AcDbFaceRecord
 10
0.0
 20
0.0
 30
0.0
 70
   128
 71
   312
 72
   313
 73
   314
 74
   315
  0
VERTEX
  5
2DB
330
138
100
AcDbEntity
  8
BASE
100
AcDbFaceRecord
 10
0.0
 20
0.0
 30
0.0
 70
   128
 71
   316
 72
   317
 73
   318
 74
   319
  0
VERTEX
  5
2DC
330
138
100
AcDbEntity
  8
BASE
100
AcDbFaceRecord
 10
0.0
 20
0.0
 30
0.0
 70
   128
 71
   320
 72
   321
 73
   322
 74
   323
  0
VERTEX
  5
2DD
330
138
100
AcDbEntity
  8
BASE
100
AcDbFaceRecord
 10
0.0
 20
0.0
 30
0.0
 70
   128
 71
   324
 72
   325
 73
   326
 74
   327
  0
VERTEX
  5
2DE
330
138
100
AcDbEntity
  8
BASE
100
AcDbFaceRecord
 10
0.0
 20
0.0
 30
0.0
 70
   128
 71
   328
 72
   329
 73
   330
 74
   331
  0
VERTEX
  5
2DF
330
138
100
AcDbEntity
  8
BASE
100
AcDbFaceRecord
 10
0.0
 20
0.0
 30
0.0
 70
   128
 71
   332
 72
   333
 73
   334
 74
   335
  0
VERTEX
  5
2E0
330
138
100
AcDbEntity
  8
BASE
100
AcDbFaceRecord
 10
0.0
 20
0.0
 30
0.0
 70
   128
 71
   336
 72
   337
 73
   338
 74
   339
  0
SEQEND
  5
2E1
330
138
100
AcDbEntity
  8
BASE
  0
ENDSEC
  0
SECTION
  2
OBJECTS
  0
DICTIONARY
  5
C
330
0
100
AcDbDictionary
281
     1
  3
ACAD_GROUP
350
D
  3
ACAD_LAYOUT
350
1A
  3
ACAD_MLEADERSTYLE
350
2E3
  3
ACAD_MLINESTYLE
350
17
  3
ACAD_PLOTSETTINGS
350
19
  3
ACAD_PLOTSTYLENAME
350
E
  3
ACAD_TABLESTYLE
350
2E2
  3
ACAD_VISUALSTYLE
350
2A
  0
DICTIONARY
  5
D
102
{ACAD_REACTORS
330
C
102
}
330
C
100
AcDbDictionary
281
     1
  0
DICTIONARY
  5
1A
102
{ACAD_REACTORS
330
C
102
}
330
C
100
AcDbDictionary
281
     1
  3
Layout1
350
1E
  3
Layout2
350
26
  3
Model
350
22
  0
DICTIONARY
  5
2E3
102
{ACAD_REACTORS
330
C
102
}
330
C
100
AcDbDictionary
281
     1
  0
DICTIONARY
  5
17
102
{ACAD_REACTORS
330
C
102
}
330
C
100
AcDbDictionary
281
     1
  3
Standard
350
18
  0
DICTIONARY
  5
19
102
{ACAD_REACTORS
330
C
102
}
330
C
100
AcDbDictionary
281
     1
  0
ACDBDICTIONARYWDFLT
  5
E
102
{ACAD_REACTORS
330
C
102
}
330
C
100
AcDbDictionary
281
     1
  3
Normal
350
F
100
AcDbDictionaryWithDefault
340
F
  0
DICTIONARY
  5
2E2
102
{ACAD_REACTORS
330
C
102
}
330
C
100
AcDbDictionary
281
     1
  0
DICTIONARY
  5
2A
102
{ACAD_REACTORS
330
C
102
}
330
C
100
AcDbDictionary
281
     1
  3
2dWireframe
350
2F
  3
3D Hidden
350
31
  3
3dWireframe
350
30
  3
Basic
350
32
  3
Brighten
350
36
  3
ColorChange
350
3A
  3
Conceptual
350
34
  3
Dim
350
35
  3
Facepattern
350
39
  3
Flat
350
2B
  3
FlatWithEdges
350
2C
  3
Gouraud
350
2D
  3
GouraudWithEdges
350
2E
  3
Linepattern
350
38
  3
Realistic
350
33
  3
Thicken
350
37
  0
LAYOUT
  5
1E
102
{ACAD_REACTORS
330
1A
102
}
330
1A
100
AcDbPlotSettings
  1

  2
none_device
  4

  6

 40
0.0
 41
0.0
 42
0.0
 43
0.0
 44
0.0
 45
0.0
 46
0.0
 47
0.0
 48
0.0
 49
0.0
140
0.0
141
0.0
142
1.0
143
1.0
 70
   688
 72
     0
 73
     0
 74
     5
  7

 75
    16
 76
     0
 77
     2
 78
   300
147
1.0
148
0.0
149
0.0
100
AcDbLayout
  1
Layout1
 70
     1
 71
     1
 10
0.0
 20
0.0
 11
12.0
 21
9.0
 12
0.0
 22
0.0
 32
0.0
 14
1.000000000000000E+20
 24
1.000000000000000E+20
 34
1.000000000000000E+20
 15
-1.000000000000000E+20
 25
-1.000000000000000E+20
 35
-1.000000000000000E+20
146
0.0
 13
0.0
 23
0.0
 33
0.0
 16
1.0
 26
0.0
 36
0.0
 17
0.0
 27
1.0
 37
0.0
 76
     0
330
1B
  0
LAYOUT
  5
26
102
{ACAD_REACTORS
330
1A
102
}
330
1A
100
AcDbPlotSettings
  1

  2
none_device
  4

  6

 40
0.0
 41
0.0
 42
0.0
 43
0.0
 44
0.0
 45
0.0
 46
0.0
 47
0.0
 48
0.0
 49
0.0
140
0.0
141
0.0
142
1.0
143
1.0
 70
   688
 72
     0
 73
     0
 74
     5
  7

 75
    16
 76
     0
 77
     2
 78
   300
147
1.0
148
0.0
149
0.0
100
AcDbLayout
  1
Layout2
 70
     1
 71
     2
 10
0.0
 20
0.0
 11
0.0
 21
0.0
 12
0.0
 22
0.0
 32
0.0
 14
0.0
 24
0.0
 34
0.0
 15
0.0
 25
0.0
 35
0.0
146
0.0
 13
0.0
 23
0.0
 33
0.0
 16
1.0
 26
0.0
 36
0.0
 17
0.0
 27
1.0
 37
0.0
 76
     0
330
23
  0
LAYOUT
  5
22
102
{ACAD_REACTORS
330
1A
102
}
330
1A
100
AcDbPlotSettings
  1

  2
none_device
  4

  6

 40
0.0
 41
0.0
 42
0.0
 43
0.0
 44
0.0
 45
0.0
 46
0.0
 47
0.0
 48
0.0
 49
0.0
140
0.0
141
0.0
142
1.0
143
1.0
 70
  1712
 72
     0
 73
     0
 74
     0
  7

 75
     0
 76
     0
 77
     2
 78
   300
147
1.0
148
0.0
149
0.0
100
AcDbLayout
  1
Model
 70
     1
 71
     0
 10
0.0
 20
0.0
 11
12.0
 21
9.0
 12
0.0
 22
0.0
 32
0.0
 14
0.0
 24
-50.55599212646484
 34
0.0
 15
56.84545135498047
 25
0.0
 35
179.1209259033203
146
0.0
 13
0.0
 23
0.0
 33
0.0
 16
1.0
 26
0.0
 36
0.0
 17
0.0
 27
1.0
 37
0.0
 76
     0
330
1F
331
29
  0
MLINESTYLE
  5
18
102
{ACAD_REACTORS
330
17
102
}
330
17
100
AcDbMlineStyle
  2
Standard
 70
     0
  3

 62
   256
 51
90.0
 52
90.0
 71
     2
 49
0.5
 62
   256
  6
BYLAYER
 49
-0.5
 62
   256
  6
BYLAYER
  0
ACDBPLACEHOLDER
  5
F
102
{ACAD_REACTORS
330
E
102
}
330
E
  0
VISUALSTYLE
  5
2F
102
{ACAD_REACTORS
330
2A
102
}
330
2A
100
AcDbVisualStyle
  2
2dWireframe
 70
     4
 71
     0
 72
     2
 73
     0
 90
        0
 40
-0.6
 41
-30.0
 62
     5
 63
     7
421
 16777215
 74
     1
 91
        4
 64
     7
 65
   257
 75
     1
175
     1
 42
1.0
 92
        0
 66
   257
 43
1.0
 76
     1
 77
     6
 78
     2
 67
     7
 79
     5
170
     0
171
     0
290
     0
174
     0
 93
        1
 44
0.0
173
     0
291
     0
 45
0.0
1001
ACAD
1000
AcDbSavedByObjectVersion
1070
     0
  0
VISUALSTYLE
  5
31
102
{ACAD_REACTORS
330
2A
102
}
330
2A
100
AcDbVisualStyle
  2
3D Hidden
 70
     6
 71
     1
 72
     2
 73
     2
 90
        0
 40
-0.6
 41
-30.0
 62
     5
 63
     7
421
 16777215
 74
     2
 91
        2
 64
     7
 65
   257
 75
     2
175
     1
 42
40.0
 92
        0
 66
   257
 43
1.0
 76
     1
 77
     6
 78
     2
 67
     7
 79
     3
170
     0
171
     0
290
     0
174
     0
 93
        1
 44
0.0
173
     0
291
     0
 45
0.0
1001
ACAD
1000
AcDbSavedByObjectVersion
1070
     0
  0
VISUALSTYLE
  5
30
102
{ACAD_REACTORS
330
2A
102
}
330
2A
100
AcDbVisualStyle
  2
3dWireframe
 70
     5
 71
     0
 72
     2
 73
     0
 90
        0
 40
-0.6
 41
-30.0
 62
     5
 63
     7
421
 16777215
 74
     1
 91
        4
 64
     7
 65
   257
 75
     1
175
     1
 42
1.0
 92
        0
 66
   257
 43
1.0
 76
     1
 77
     6
 78
     2
 67
     7
 79
     5
170
     0
171
     0
290
     0
174
     0
 93
        1
 44
0.0
173
     0
291
     0
 45
0.0
1001
ACAD
1000
AcDbSavedByObjectVersion
1070
     0
  0
VISUALSTYLE
  5
32
102
{ACAD_REACTORS
330
2A
102
}
330
2A
100
AcDbVisualStyle
  2
Basic
 70
     7
 71
     1
 72
     0
 73
     1
 90
        0
 40
-0.6
 41
-30.0
 62
     5
 63
     7
421
 16777215
 74
     0
 91
        4
 64
     7
 65
   257
 75
     1
175
     1
 42
1.0
 92
        8
 66
     7
 43
1.0
 76
     1
 77
     6
 78
     2
 67
     7
 79
     5
170
     0
171
     0
290
     0
174
     0
 93
        1
 44
0.0
173
     0
291
     1
 45
0.0
1001
ACAD
1000
AcDbSavedByObjectVersion
1070
     0
  0
VISUALSTYLE
  5
36
102
{ACAD_REACTORS
330
2A
102
}
330
2A
100
AcDbVisualStyle
  2
Brighten
 70
    12
 71
     2
 72
     2
 73
     0
 90
        0
 40
-0.6
 41
-30.0
 62
     5
 63
     7
421
 16777215
 74
     1
 91
        4
 64
     7
 65
   257
 75
     1
175
     1
 42
1.0
 92
        8
 66
     7
 43
1.0
 76
     1
 77
     6
 78
     2
 67
     7
 79
     5
170
     0
171
     0
290
     0
174
     0
 93
        1
 44
50.0
173
     0
291
     1
 45
0.0
1001
ACAD
1000
AcDbSavedByObjectVersion
1070
     0
  0
VISUALSTYLE
  5
3A
102
{ACAD_REACTORS
330
2A
102
}
330
2A
100
AcDbVisualStyle
  2
ColorChange
 70
    16
 71
     2
 72
     2
 73
     3
 90
        0
 40
-0.6
 41
-30.0
 62
     5
 63
     8
421
  8421504
 74
     1
 91
        4
 64
     7
 65
   257
 75
     1
175
     1
 42
1.0
 92
        8
 66
     8
424
  8421504
 43
1.0
 76
     1
 77
     6
 78
     2
 67
     7
 79
     5
170
     0
171
     0
290
     0
174
     0
 93
        1
 44
0.0
173
     0
291
     1
 45
0.0
1001
ACAD
1000
AcDbSavedByObjectVersion
1070
     0
  0
VISUALSTYLE
  5
34
102
{ACAD_REACTORS
330
2A
102
}
330
2A
100
AcDbVisualStyle
  2
Conceptual
 70
     9
 71
     3
 72
     2
 73
     0
 90
        0
 40
-0.6
 41
-30.0
 62
     5
 63
     7
421
 16777215
 74
     2
 91
        2
 64
     7
 65
   257
 75
     1
175
     1
 42
40.0
 92
        8
 66
     7
 43
1.0
 76
     1
 77
     6
 78
     2
 67
     7
 79
     3
170
     0
171
     0
290
     0
174
     0
 93
        1
 44
0.0
173
     0
291
     0
 45
0.0
1001
ACAD
1000
AcDbSavedByObjectVersion
1070
     0
  0
VISUALSTYLE
  5
35
102
{ACAD_REACTORS
330
2A
102
}
330
2A
100
AcDbVisualStyle
  2
Dim
 70
    11
 71
     2
 72
     2
 73
     0
 90
        0
 40
-0.6
 41
-30.0
 62
     5
 63
     7
421
 16777215
 74
     1
 91
        4
 64
     7
 65
   257
 75
     1
175
     1
 42
1.0
 92
        8
 66
     7
 43
1.0
 76
     1
 77
     6
 78
     2
 67
     7
 79
     5
170
     0
171
     0
290
     0
174
     0
 93
        1
 44
-50.0
173
     0
291
     1
 45
0.0
1001
ACAD
1000
AcDbSavedByObjectVersion
1070
     0
  0
VISUALSTYLE
  5
39
102
{ACAD_REACTORS
330
2A
102
}
330
2A
100
AcDbVisualStyle
  2
Facepattern
 70
    15
 71
     2
 72
     2
 73
     0
 90
        0
 40
-0.6
 41
-30.0
 62
     5
 63
     7
421
 16777215
 74
     1
 91
        4
 64
     7
 65
   257
 75
     1
175
     1
 42
1.0
 92
        8
 66
     7
 43
1.0
 76
     1
 77
     6
 78
     2
 67
     7
 79
     5
170
     0
171
     0
290
     0
174
     0
 93
        1
 44
0.0
173
     0
291
     1
 45
0.0
1001
ACAD
1000
AcDbSavedByObjectVersion
1070
     0
  0
VISUALSTYLE
  5
2B
102
{ACAD_REACTORS
330
2A
102
}
330
2A
100
AcDbVisualStyle
  2
Flat
 70
     0
 71
     2
 72
     1
 73
     1
 90
        2
 40
-0.6
 41
30.0
 62
     5
 63
     7
421
 16777215
 74
     0
 91
        4
 64
     7
 65
   257
 75
     1
175
     1
 42
1.0
 92
        8
 66
     7
 43
1.0
 76
     1
 77
     6
 78
     2
 67
     7
 79
     5
170
     0
171
     0
290
     0
174
     0
 93
       13
 44
0.0
173
     0
291
     1
 45
0.0
1001
ACAD
1000
AcDbSavedByObjectVersion
1070
     0
  0
VISUALSTYLE
  5
2C
102
{ACAD_REACTORS
330
2A
102
}
330
2A
100
AcDbVisualStyle
  2
FlatWithEdges
 70
     1
 71
     2
 72
     1
 73
     1
 90
        2
 40
-0.6
 41
30.0
 62
     5
 63
     7
421
 16777215
 74
     1
 91
        4
 64
     7
 65
   257
 75
     1
175
     1
 42
1.0
 92
        0
 66
   257
 43
1.0
 76
     1
 77
     6
 78
     2
 67
     7
 79
     5
170
     0
171
     0
290
     0
174
     0
 93
       13
 44
0.0
173
     0
291
     1
 45
0.0
1001
ACAD
1000
AcDbSavedByObjectVersion
1070
     0
  0
VISUALSTYLE
  5
2D
102
{ACAD_REACTORS
330
2A
102
}
330
2A
100
AcDbVisualStyle
  2
Gouraud
 70
     2
 71
     2
 72
     2
 73
     1
 90
        2
 40
-0.6
 41
30.0
 62
     5
 63
     7
421
 16777215
 74
     0
 91
        4
 64
     7
 65
   257
 75
     1
175
     1
 42
1.0
 92
        0
 66
     7
 43
1.0
 76
     1
 77
     6
 78
     2
 67
     7
 79
     5
170
     0
171
     0
290
     0
174
     0
 93
       13
 44
0.0
173
     0
291
     1
 45
0.0
1001
ACAD
1000
AcDbSavedByObjectVersion
1070
     0
  0
VISUALSTYLE
  5
2E
102
{ACAD_REACTORS
330
2A
102
}
330
2A
100
AcDbVisualStyle
  2
GouraudWithEdges
 70
     3
 71
     2
 72
     2
 73
     1
 90
        2
 40
-0.6
 41
30.0
 62
     5
 63
     7
421
 16777215
 74
     1
 91
        4
 64
     7
 65
   257
 75
     1
175
     1
 42
1.0
 92
        0
 66
   257
 43
1.0
 76
     1
 77
     6
 78
     2
 67
     7
 79
     5
170
     0
171
     0
290
     0
174
     0
 93
       13
 44
0.0
173
     0
291
     1
 45
0.0
1001
ACAD
1000
AcDbSavedByObjectVersion
1070
     0
  0
VISUALSTYLE
  5
38
102
{ACAD_REACTORS
330
2A
102
}
330
2A
100
AcDbVisualStyle
  2
Linepattern
 70
    14
 71
     2
 72
     2
 73
     0
 90
        0
 40
-0.6
 41
-30.0
 62
     5
 63
     7
421
 16777215
 74
     1
 91
        4
 64
     7
 65
   257
 75
     7
175
     7
 42
1.0
 92
        8
 66
     7
 43
1.0
 76
     1
 77
     6
 78
     2
 67
     7
 79
     5
170
     0
171
     0
290
     0
174
     0
 93
        1
 44
0.0
173
     0
291
     1
 45
0.0
1001
ACAD
1000
AcDbSavedByObjectVersion
1070
     0
  0
VISUALSTYLE
  5
33
102
{ACAD_REACTORS
330
2A
102
}
330
2A
100
AcDbVisualStyle
  2
Realistic
 70
     8
 71
     2
 72
     2
 73
     0
 90
        0
 40
-0.6
 41
-30.0
 62
     5
 63
     7
421
 16777215
 74
     1
 91
        0
 64
     7
 65
   257
 75
     1
175
     1
 42
1.0
 92
        8
 66
     8
424
  7895160
 43
1.0
 76
     1
 77
     6
 78
     2
 67
     7
 79
     5
170
     0
171
     0
290
     0
174
     0
 93
       13
 44
0.0
173
     0
291
     0
 45
0.0
1001
ACAD
1000
AcDbSavedByObjectVersion
1070
     0
  0
VISUALSTYLE
  5
37
102
{ACAD_REACTORS
330
2A
102
}
330
2A
100
AcDbVisualStyle
  2
Thicken
 70
    13
 71
     2
 72
     2
 73
     0
 90
        0
 40
-0.6
 41
-30.0
 62
     5
 63
     7
421
 16777215
 74
     1
 91
        4
 64
     7
 65
   257
 75
     1
175
     1
 42
1.0
 92
       12
 66
     7
 43
1.0
 76
     1
 77
     6
 78
     2
 67
     7
 79
     5
170
     0
171
     0
290
     0
174
     0
 93
        1
 44
0.0
173
     0
291
     1
 45
0.0
1001
ACAD
1000
AcDbSavedByObjectVersion
1070
     0
  0
ENDSEC
  0
EOF
