  0
SECTION
  2
HEADER
  9
$ACADVER
  1
AC1018
  9
$ACADMAINTVER
 70
     0
  9
$DWGCODEPAGE
  3
ANSI_1252
  9
$INSBASE
 10
0.0
 20
0.0
 30
0.0
  9
$EXTMIN
 10
0.0
 20
-22.27977180480957
 30
0.0
  9
$EXTMAX
 10
22.38009834289551
 20
0.0
 30
83.49891662597656
  9
$LIMMIN
 10
0.0
 20
0.0
  9
$LIMMAX
 10
12.0
 20
9.0
  9
$ORTHOMODE
 70
     0
  9
$REGENMODE
 70
     1
  9
$FILLMODE
 70
     1
  9
$QTEXTMODE
 70
     0
  9
$MIRRTEXT
 70
     1
  9
$LTSCALE
 40
0.0393700787401575
  9
$ATTMODE
 70
     1
  9
$TEXTSIZE
 40
0.2
  9
$TRACEWID
 40
0.05
  9
$TEXTSTYLE
  7
Standard
  9
$CLAYER
  8
0
  9
$CELTYPE
  6
ByLayer
  9
$CECOLOR
 62
   256
  9
$CELTSCALE
 40
1.0
  9
$DISPSILH
 70
     0
  9
$DIMSCALE
 40
1.0
  9
$DIMASZ
 40
0.18
  9
$DIMEXO
 40
0.0625
  9
$DIMDLI
 40
0.38
  9
$DIMRND
 40
0.0
  9
$DIMDLE
 40
0.0
  9
$DIMEXE
 40
0.18
  9
$DIMTP
 40
0.0
  9
$DIMTM
 40
0.0
  9
$DIMTXT
 40
0.18
  9
$DIMCEN
 40
0.09
  9
$DIMTSZ
 40
0.0
  9
$DIMTOL
 70
     0
  9
$DIMLIM
 70
     0
  9
$DIMTIH
 70
     1
  9
$DIMTOH
 70
     1
  9
$DIMSE1
 70
     0
  9
$DIMSE2
 70
     0
  9
$DIMTAD
 70
     0
  9
$DIMZIN
 70
     0
  9
$DIMBLK
  1

  9
$DIMASO
 70
     1
  9
$DIMSHO
 70
     1
  9
$DIMPOST
  1

  9
$DIMAPOST
  1

  9
$DIMALT
 70
     0
  9
$DIMALTD
 70
     2
  9
$DIMALTF
 40
25.4
  9
$DIMLFAC
 40
1.0
  9
$DIMTOFL
 70
     0
  9
$DIMTVP
 40
0.0
  9
$DIMTIX
 70
     0
  9
$DIMSOXD
 70
     0
  9
$DIMSAH
 70
     0
  9
$DIMBLK1
  1

  9
$DIMBLK2
  1

  9
$DIMSTYLE
  2
Standard
  9
$DIMCLRD
 70
     0
  9
$DIMCLRE
 70
     0
  9
$DIMCLRT
 70
     0
  9
$DIMTFAC
 40
1.0
  9
$DIMGAP
 40
0.09
  9
$DIMJUST
 70
     0
  9
$DIMSD1
 70
     0
  9
$DIMSD2
 70
     0
  9
$DIMTOLJ
 70
     1
  9
$DIMTZIN
 70
     0
  9
$DIMALTZ
 70
     0
  9
$DIMALTTZ
 70
     0
  9
$DIMUPT
 70
     0
  9
$DIMDEC
 70
     4
  9
$DIMTDEC
 70
     4
  9
$DIMALTU
 70
     2
  9
$DIMALTTD
 70
     2
  9
$DIMTXSTY
  7
Standard
  9
$DIMAUNIT
 70
     0
  9
$DIMADEC
 70
     0
  9
$DIMALTRND
 40
0.0
  9
$DIMAZIN
 70
     0
  9
$DIMDSEP
 70
    46
  9
$DIMATFIT
 70
     3
  9
$DIMFRAC
 70
     0
  9
$DIMLDRBLK
  1

  9
$DIMLUNIT
 70
     2
  9
$DIMLWD
 70
    -2
  9
$DIMLWE
 70
    -2
  9
$DIMTMOVE
 70
     2
  9
$LUNITS
 70
     2
  9
$LUPREC
 70
     4
  9
$SKETCHINC
 40
0.1
  9
$FILLETRAD
 40
0.5
  9
$AUNITS
 70
     0
  9
$AUPREC
 70
     0
  9
$MENU
  1
.
  9
$ELEVATION
 40
0.0
  9
$PELEVATION
 40
0.0
  9
$THICKNESS
 40
0.0
  9
$LIMCHECK
 70
     0
  9
$CHAMFERA
 40
0.5
  9
$CHAMFERB
 40
0.5
  9
$CHAMFERC
 40
1.0
  9
$CHAMFERD
 40
0.0
  9
$SKPOLY
 70
     0
  9
$TDCREATE
 40
2459177.603401991
  9
$TDUCREATE
 40
2459177.728401991
  9
$TDUPDATE
 40
2459177.603402002
  9
$TDUUPDATE
 40
2459177.728402002
  9
$TDINDWG
 40
0.0000000116
  9
$TDUSRTIMER
 40
0.0000000116
  9
$USRTIMER
 70
     1
  9
$ANGBASE
 50
0.0
  9
$ANGDIR
 70
     0
  9
$PDMODE
 70
     0
  9
$PDSIZE
 40
0.0
  9
$PLINEWID
 40
0.0
  9
$SPLFRAME
 70
     0
  9
$SPLINETYPE
 70
     6
  9
$SPLINESEGS
 70
     8
  9
$HANDSEED
  5
2DA
  9
$SURFTAB1
 70
     6
  9
$SURFTAB2
 70
     6
  9
$SURFTYPE
 70
     6
  9
$SURFU
 70
     6
  9
$SURFV
 70
     6
  9
$UCSBASE
  2

  9
$UCSNAME
  2

  9
$UCSORG
 10
0.0
 20
0.0
 30
0.0
  9
$UCSXDIR
 10
1.0
 20
0.0
 30
0.0
  9
$UCSYDIR
 10
0.0
 20
1.0
 30
0.0
  9
$UCSORTHOREF
  2

  9
$UCSORTHOVIEW
 70
     0
  9
$UCSORGTOP
 10
0.0
 20
0.0
 30
0.0
  9
$UCSORGBOTTOM
 10
0.0
 20
0.0
 30
0.0
  9
$UCSORGLEFT
 10
0.0
 20
0.0
 30
0.0
  9
$UCSORGRIGHT
 10
0.0
 20
0.0
 30
0.0
  9
$UCSORGFRONT
 10
0.0
 20
0.0
 30
0.0
  9
$UCSORGBACK
 10
0.0
 20
0.0
 30
0.0
  9
$PUCSBASE
  2

  9
$PUCSNAME
  2

  9
$PUCSORG
 10
0.0
 20
0.0
 30
0.0
  9
$PUCSXDIR
 10
1.0
 20
0.0
 30
0.0
  9
$PUCSYDIR
 10
0.0
 20
1.0
 30
0.0
  9
$PUCSORTHOREF
  2

  9
$PUCSORTHOVIEW
 70
     0
  9
$PUCSORGTOP
 10
0.0
 20
0.0
 30
0.0
  9
$PUCSORGBOTTOM
 10
0.0
 20
0.0
 30
0.0
  9
$PUCSORGLEFT
 10
0.0
 20
0.0
 30
0.0
  9
$PUCSORGRIGHT
 10
0.0
 20
0.0
 30
0.0
  9
$PUCSORGFRONT
 10
0.0
 20
0.0
 30
0.0
  9
$PUCSORGBACK
 10
0.0
 20
0.0
 30
0.0
  9
$USERI1
 70
     0
  9
$USERI2
 70
     0
  9
$USERI3
 70
     0
  9
$USERI4
 70
     0
  9
$USERI5
 70
     0
  9
$USERR1
 40
0.0
  9
$USERR2
 40
0.0
  9
$USERR3
 40
0.0
  9
$USERR4
 40
0.0
  9
$USERR5
 40
0.0
  9
$WORLDVIEW
 70
     1
  9
$SHADEDGE
 70
     3
  9
$SHADEDIF
 70
    70
  9
$TILEMODE
 70
     1
  9
$MAXACTVP
 70
    64
  9
$PINSBASE
 10
0.0
 20
0.0
 30
0.0
  9
$PLIMCHECK
 70
     0
  9
$PEXTMIN
 10
1.000000000000000E+20
 20
1.000000000000000E+20
 30
1.000000000000000E+20
  9
$PEXTMAX
 10
-1.000000000000000E+20
 20
-1.000000000000000E+20
 30
-1.000000000000000E+20
  9
$PLIMMIN
 10
0.0
 20
0.0
  9
$PLIMMAX
 10
12.0
 20
9.0
  9
$UNITMODE
 70
     0
  9
$VISRETAIN
 70
     1
  9
$PLINEGEN
 70
     0
  9
$PSLTSCALE
 70
     1
  9
$TREEDEPTH
 70
  3020
  9
$CMLSTYLE
  2
Standard
  9
$CMLJUST
 70
     0
  9
$CMLSCALE
 40
1.0
  9
$PROXYGRAPHICS
 70
     1
  9
$MEASUREMENT
 70
     0
  9
$CELWEIGHT
370
    -1
  9
$ENDCAPS
280
     0
  9
$JOINSTYLE
280
     0
  9
$LWDISPLAY
290
     0
  9
$INSUNITS
 70
     1
  9
$HYPERLINKBASE
  1

  9
$STYLESHEET
  1

  9
$XEDIT
290
     1
  9
$CEPSNTYPE
380
     0
  9
$PSTYLEMODE
290
     1
  9
$FINGERPRINTGUID
  2
{69727F8F-4FBF-4F68-9456-04351489F8B2}
  9
$VERSIONGUID
  2
{FAEB1C32-E019-11D5-929B-00C0DF256EC4}
  9
$EXTNAMES
290
     1
  9
$PSVPSCALE
 40
0.0
  9
$OLESTARTUP
290
     0
  9
$SORTENTS
280
   127
  9
$INDEXCTL
280
     0
  9
$HIDETEXT
280
     1
  9
$XCLIPFRAME
290
     0
  9
$HALOGAP
280
     0
  9
$OBSCOLOR
 70
   257
  9
$OBSLTYPE
280
     0
  9
$INTERSECTIONDISPLAY
280
     0
  9
$INTERSECTIONCOLOR
 70
   257
  9
$DIMASSOC
280
     2
  9
$PROJECTNAME
  1

  0
ENDSEC
  0
SECTION
  2
CLASSES
  0
CLASS
  1
ACDBDICTIONARYWDFLT
  2
AcDbDictionaryWithDefault
  3
ObjectDBX Classes
 90
        0
 91
        4
280
     0
281
     0
  0
CLASS
  1
VISUALSTYLE
  2
AcDbVisualStyle
  3
ObjectDBX Classes
 90
     4095
 91
        4
280
     0
281
     0
  0
ENDSEC
  0
SECTION
  2
TABLES
  0
TABLE
  2
VPORT
  5
8
330
0
100
AcDbSymbolTable
 70
     1
  0
VPORT
  5
29
330
8
100
AcDbSymbolTableRecord
100
AcDbViewportTableRecord
  2
*Active
 70
     0
 10
0.0
 20
0.0
 11
1.0
 21
1.0
 12
11.19004917144775
 22
-11.13988590240479
 13
0.0
 23
0.0
 14
0.5
 24
0.5
 15
0.5
 25
0.5
 16
0.0
 26
0.0
 36
1.0
 17
0.0
 27
0.0
 37
0.0
 40
22.72536724090576
 41
1.004503032569853
 42
50.0
 43
0.0
 44
0.0
 50
0.0
 51
0.0
 71
     0
 72
   100
 73
     1
 74
     3
 75
     0
 76
     0
 77
     0
 78
     0
281
     0
 65
     1
110
0.0
120
0.0
130
0.0
111
1.0
121
0.0
131
0.0
112
0.0
122
1.0
132
0.0
 79
     0
146
0.0
  0
ENDTAB
  0
TABLE
  2
LTYPE
  5
5
330
0
100
AcDbSymbolTable
 70
     1
  0
LTYPE
  5
14
330
5
100
AcDbSymbolTableRecord
100
AcDbLinetypeTableRecord
  2
ByBlock
 70
     0
  3

 72
    65
 73
     0
 40
0.0
  0
LTYPE
  5
15
330
5
100
AcDbSymbolTableRecord
100
AcDbLinetypeTableRecord
  2
ByLayer
 70
     0
  3

 72
    65
 73
     0
 40
0.0
  0
LTYPE
  5
16
330
5
100
AcDbSymbolTableRecord
100
AcDbLinetypeTableRecord
  2
Continuous
 70
     0
  3
Solid line
 72
    65
 73
     0
 40
0.0
  0
ENDTAB
  0
TABLE
  2
LAYER
  5
2
330
0
100
AcDbSymbolTable
 70
     3
  0
LAYER
  5
10
330
2
100
AcDbSymbolTableRecord
100
AcDbLayerTableRecord
  2
0
 70
     0
 62
     7
  6
Continuous
370
    -3
390
F
  0
LAYER
  5
3B
330
2
100
AcDbSymbolTableRecord
100
AcDbLayerTableRecord
  2
BASE
 70
     0
 62
    30
  6
Continuous
370
    -3
390
F
  0
LAYER
  5
235
330
2
100
AcDbSymbolTableRecord
100
AcDbLayerTableRecord
  2
CUPULA
 70
     0
 62
     1
  6
Continuous
370
    -3
390
F
  0
ENDTAB
  0
TABLE
  2
STYLE
  5
3
330
0
100
AcDbSymbolTable
 70
     1
  0
STYLE
  5
11
330
3
100
AcDbSymbolTableRecord
100
AcDbTextStyleTableRecord
  2
Standard
 70
     0
 40
0.0
 41
1.0
 50
0.0
 71
     0
 42
0.2
  3
txt
  4

  0
ENDTAB
  0
TABLE
  2
VIEW
  5
6
330
0
100
AcDbSymbolTable
 70
     0
  0
ENDTAB
  0
TABLE
  2
UCS
  5
7
330
0
100
AcDbSymbolTable
 70
     0
  0
ENDTAB
  0
TABLE
  2
APPID
  5
9
330
0
100
AcDbSymbolTable
 70
     1
  0
APPID
  5
12
330
9
100
AcDbSymbolTableRecord
100
AcDbRegAppTableRecord
  2
ACAD
 70
     0
  0
ENDTAB
  0
TABLE
  2
DIMSTYLE
  5
A
330
0
100
AcDbSymbolTable
 70
     1
100
AcDbDimStyleTable
  0
DIMSTYLE
105
27
330
A
100
AcDbSymbolTableRecord
100
AcDbDimStyleTableRecord
  2
Standard
 70
     0
340
11
  0
ENDTAB
  0
TABLE
  2
BLOCK_RECORD
  5
1
330
0
100
AcDbSymbolTable
 70
     1
  0
BLOCK_RECORD
  5
1F
330
1
100
AcDbSymbolTableRecord
100
AcDbBlockTableRecord
  2
*Model_Space
340
22
  0
BLOCK_RECORD
  5
1B
330
1
100
AcDbSymbolTableRecord
100
AcDbBlockTableRecord
  2
*Paper_Space
340
1E
  0
BLOCK_RECORD
  5
23
330
1
100
AcDbSymbolTableRecord
100
AcDbBlockTableRecord
  2
*Paper_Space0
340
26
  0
ENDTAB
  0
ENDSEC
  0
SECTION
  2
BLOCKS
  0
BLOCK
  5
20
330
1F
100
AcDbEntity
  8
0
100
AcDbBlockBegin
  2
*Model_Space
 70
     0
 10
0.0
 20
0.0
 30
0.0
  3
*Model_Space
  1

  0
ENDBLK
  5
21
330
1F
100
AcDbEntity
  8
0
100
AcDbBlockEnd
  0
BLOCK
  5
1C
330
1B
100
AcDbEntity
 67
     1
  8
0
100
AcDbBlockBegin
  2
*Paper_Space
 70
     0
 10
0.0
 20
0.0
 30
0.0
  3
*Paper_Space
  1

  0
ENDBLK
  5
1D
330
1B
100
AcDbEntity
 67
     1
  8
0
100
AcDbBlockEnd
  0
BLOCK
  5
24
330
23
100
AcDbEntity
  8
0
100
AcDbBlockBegin
  2
*Paper_Space0
 70
     0
 10
0.0
 20
0.0
 30
0.0
  3
*Paper_Space0
  1

  0
ENDBLK
  5
25
330
23
100
AcDbEntity
  8
0
100
AcDbBlockEnd
  0
ENDSEC
  0
SECTION
  2
ENTITIES
  0
POLYLINE
  5
3C
330
1F
100
AcDbEntity
  8
BASE
100
AcDbPolyFaceMesh
 66
     1
 10
0.0
 20
0.0
 30
0.0
 70
    64
 71
   239
 72
    60
  0
VERTEX
  5
3D
330
3C
100
AcDbEntity
  8
BASE
100
AcDbVertex
100
AcDbPolyFaceMeshVertex
 10
10.84029197692871
 20
-9.711578369140625
 30
17.86628913879395
 70
   192
  0
VERTEX
  5
3E
330
3C
100
AcDbEntity
  8
BASE
100
AcDbVertex
100
AcDbPolyFaceMeshVertex
 10
10.83873653411865
 20
-10.44791316986084
 30
17.86628913879395
 70
   192
  0
VERTEX
  5
3F
330
3C
100
AcDbEntity
  8
BASE
100
AcDbVertex
100
AcDbPolyFaceMeshVertex
 10
10.83873653411865
 20
-10.44791316986084
 30
70.25090026855469
 70
   192
  0
VERTEX
  5
40
330
3C
100
AcDbEntity
  8
BASE
100
AcDbVertex
100
AcDbPolyFaceMeshVertex
 10
10.84029197692871
 20
-9.711578369140625
 30
70.25090026855469
 70
   192
  0
VERTEX
  5
41
330
3C
100
AcDbEntity
  8
BASE
100
AcDbVertex
100
AcDbPolyFaceMeshVertex
 10
11.53980922698975
 20
-9.711578369140625
 30
70.25090026855469
 70
   192
  0
VERTEX
  5
42
330
3C
100
AcDbEntity
  8
BASE
100
AcDbVertex
100
AcDbPolyFaceMeshVertex
 10
11.53998184204102
 20
-10.44100475311279
 30
70.25090026855469
 70
   192
  0
VERTEX
  5
43
330
3C
100
AcDbEntity
  8
BASE
100
AcDbVertex
100
AcDbPolyFaceMeshVertex
 10
11.53998184204102
 20
-10.44100475311279
 30
17.86628913879395
 70
   192
  0
VERTEX
  5
44
330
3C
100
AcDbEntity
  8
BASE
100
AcDbVertex
100
AcDbPolyFaceMeshVertex
 10
11.53980922698975
 20
-9.711578369140625
 30
17.86628913879395
 70
   192
  0
VERTEX
  5
45
330
3C
100
AcDbEntity
  8
BASE
100
AcDbVertex
100
AcDbPolyFaceMeshVertex
 10
11.19405364990234
 20
-9.105778694152832
 30
17.86628913879395
 70
   192
  0
VERTEX
  5
46
330
3C
100
AcDbEntity
  8
BASE
100
AcDbVertex
100
AcDbPolyFaceMeshVertex
 10
11.82695770263672
 20
-8.736265182495117
 30
17.86628913879395
 70
   192
  0
VERTEX
  5
47
330
3C
100
AcDbEntity
  8
BASE
100
AcDbVertex
100
AcDbPolyFaceMeshVertex
 10
11.82695770263672
 20
-8.736265182495117
 30
70.25090026855469
 70
   192
  0
VERTEX
  5
48
330
3C
100
AcDbEntity
  8
BASE
100
AcDbVertex
100
AcDbPolyFaceMeshVertex
 10
11.19405364990234
 20
-9.105778694152832
 30
70.25090026855469
 70
   192
  0
VERTEX
  5
49
330
3C
100
AcDbEntity
  8
BASE
100
AcDbVertex
100
AcDbPolyFaceMeshVertex
 10
11.53980922698975
 20
-9.711578369140625
 30
70.25090026855469
 70
   192
  0
VERTEX
  5
4A
330
3C
100
AcDbEntity
  8
BASE
100
AcDbVertex
100
AcDbPolyFaceMeshVertex
 10
12.17159557342529
 20
-9.347015380859375
 30
70.25090026855469
 70
   192
  0
VERTEX
  5
4B
330
3C
100
AcDbEntity
  8
BASE
100
AcDbVertex
100
AcDbPolyFaceMeshVertex
 10
12.17159557342529
 20
-9.347015380859375
 30
17.86628913879395
 70
   192
  0
VERTEX
  5
4C
330
3C
100
AcDbEntity
  8
BASE
100
AcDbVertex
100
AcDbPolyFaceMeshVertex
 10
11.53980922698975
 20
-9.711578369140625
 30
17.86628913879395
 70
   192
  0
VERTEX
  5
4D
330
3C
100
AcDbEntity
  8
BASE
100
AcDbVertex
100
AcDbPolyFaceMeshVertex
 10
11.19448089599609
 20
-9.105778694152832
 30
17.86628913879395
 70
   192
  0
VERTEX
  5
4E
330
3C
100
AcDbEntity
  8
BASE
100
AcDbVertex
100
AcDbPolyFaceMeshVertex
 10
10.56247043609619
 20
-8.736265182495117
 30
17.86628913879395
 70
   192
  0
VERTEX
  5
4F
330
3C
100
AcDbEntity
  8
BASE
100
AcDbVertex
100
AcDbPolyFaceMeshVertex
 10
10.56247043609619
 20
-8.736265182495117
 30
70.25090026855469
 70
   192
  0
VERTEX
  5
50
330
3C
100
AcDbEntity
  8
BASE
100
AcDbVertex
100
AcDbPolyFaceMeshVertex
 10
11.19448089599609
 20
-9.105778694152832
 30
70.25090026855469
 70
   192
  0
VERTEX
  5
51
330
3C
100
AcDbEntity
  8
BASE
100
AcDbVertex
100
AcDbPolyFaceMeshVertex
 10
10.84029197692871
 20
-9.711578369140625
 30
70.25090026855469
 70
   192
  0
VERTEX
  5
52
330
3C
100
AcDbEntity
  8
BASE
100
AcDbVertex
100
AcDbPolyFaceMeshVertex
 10
10.21783065795898
 20
-9.347015380859375
 30
70.25090026855469
 70
   192
  0
VERTEX
  5
53
330
3C
100
AcDbEntity
  8
BASE
100
AcDbVertex
100
AcDbPolyFaceMeshVertex
 10
10.21783065795898
 20
-9.347015380859375
 30
17.86628913879395
 70
   192
  0
VERTEX
  5
54
330
3C
100
AcDbEntity
  8
BASE
100
AcDbVertex
100
AcDbPolyFaceMeshVertex
 10
10.84029197692871
 20
-9.711578369140625
 30
17.86628913879395
 70
   192
  0
VERTEX
  5
55
330
3C
100
AcDbEntity
  8
BASE
100
AcDbVertex
100
AcDbPolyFaceMeshVertex
 10
11.19405364990234
 20
-9.105778694152832
 30
17.86628913879395
 70
   192
  0
VERTEX
  5
56
330
3C
100
AcDbEntity
  8
BASE
100
AcDbVertex
100
AcDbPolyFaceMeshVertex
 10
10.84029197692871
 20
-9.711578369140625
 30
17.86628913879395
 70
   192
  0
VERTEX
  5
57
330
3C
100
AcDbEntity
  8
BASE
100
AcDbVertex
100
AcDbPolyFaceMeshVertex
 10
11.53980922698975
 20
-9.711578369140625
 30
17.86628913879395
 70
   192
  0
VERTEX
  5
58
330
3C
100
AcDbEntity
  8
BASE
100
AcDbVertex
100
AcDbPolyFaceMeshVertex
 10
11.53980922698975
 20
-9.711578369140625
 30
17.86628913879395
 70
   192
  0
VERTEX
  5
59
330
3C
100
AcDbEntity
  8
BASE
100
AcDbVertex
100
AcDbPolyFaceMeshVertex
 10
11.53998184204102
 20
-10.44100475311279
 30
17.86628913879395
 70
   192
  0
VERTEX
  5
5A
330
3C
100
AcDbEntity
  8
BASE
100
AcDbVertex
100
AcDbPolyFaceMeshVertex
 10
10.83873653411865
 20
-10.44791316986084
 30
17.86628913879395
 70
   192
  0
VERTEX
  5
5B
330
3C
100
AcDbEntity
  8
BASE
100
AcDbVertex
100
AcDbPolyFaceMeshVertex
 10
10.84029197692871
 20
-9.711578369140625
 30
17.86628913879395
 70
   192
  0
VERTEX
  5
5C
330
3C
100
AcDbEntity
  8
BASE
100
AcDbVertex
100
AcDbPolyFaceMeshVertex
 10
11.18935871124268
 20
-10.44445896148682
 30
17.86628913879395
 70
   192
  0
VERTEX
  5
5D
330
3C
100
AcDbEntity
  8
BASE
100
AcDbVertex
100
AcDbPolyFaceMeshVertex
 10
11.19294548034668
 20
-10.80847072601318
 30
17.86628913879395
 70
   192
  0
VERTEX
  5
5E
330
3C
100
AcDbEntity
  8
BASE
100
AcDbVertex
100
AcDbPolyFaceMeshVertex
 10
11.44459247589111
 20
-10.69852161407471
 30
17.86628913879395
 70
   192
  0
VERTEX
  5
5F
330
3C
100
AcDbEntity
  8
BASE
100
AcDbVertex
100
AcDbPolyFaceMeshVertex
 10
11.53998184204102
 20
-10.44100475311279
 30
17.86628913879395
 70
   192
  0
VERTEX
  5
60
330
3C
100
AcDbEntity
  8
BASE
100
AcDbVertex
100
AcDbPolyFaceMeshVertex
 10
11.18935871124268
 20
-10.44445896148682
 30
17.86628913879395
 70
   192
  0
VERTEX
  5
61
330
3C
100
AcDbEntity
  8
BASE
100
AcDbVertex
100
AcDbPolyFaceMeshVertex
 10
11.19294548034668
 20
-10.80847072601318
 30
17.86628913879395
 70
   192
  0
VERTEX
  5
62
330
3C
100
AcDbEntity
  8
BASE
100
AcDbVertex
100
AcDbPolyFaceMeshVertex
 10
10.93918228149414
 20
-10.70350170135498
 30
17.86628913879395
 70
   192
  0
VERTEX
  5
63
330
3C
100
AcDbEntity
  8
BASE
100
AcDbVertex
100
AcDbPolyFaceMeshVertex
 10
10.83873653411865
 20
-10.44791316986084
 30
17.86628913879395
 70
   192
  0
VERTEX
  5
64
330
3C
100
AcDbEntity
  8
BASE
100
AcDbVertex
100
AcDbPolyFaceMeshVertex
 10
11.53980922698975
 20
-10.95490550994873
 30
14.73552417755127
 70
   192
  0
VERTEX
  5
65
330
3C
100
AcDbEntity
  8
BASE
100
AcDbVertex
100
AcDbPolyFaceMeshVertex
 10
11.53998184204102
 20
-11.41154766082764
 30
15.11927890777588
 70
   192
  0
VERTEX
  5
66
330
3C
100
AcDbEntity
  8
BASE
100
AcDbVertex
100
AcDbPolyFaceMeshVertex
 10
10.83873653411865
 20
-11.41683959960938
 30
15.12372016906738
 70
   192
  0
VERTEX
  5
67
330
3C
100
AcDbEntity
  8
BASE
100
AcDbVertex
100
AcDbPolyFaceMeshVertex
 10
10.84029197692871
 20
-10.95490550994873
 30
14.73552417755127
 70
   192
  0
VERTEX
  5
68
330
3C
100
AcDbEntity
  8
BASE
100
AcDbVertex
100
AcDbPolyFaceMeshVertex
 10
11.53980922698975
 20
-21.31586456298828
 30
0.000000000000009
 70
   192
  0
VERTEX
  5
69
330
3C
100
AcDbEntity
  8
BASE
100
AcDbVertex
100
AcDbPolyFaceMeshVertex
 10
11.53998184204102
 20
-21.91231727600098
 30
0.0056940438225865
 70
   192
  0
VERTEX
  5
6A
330
3C
100
AcDbEntity
  8
BASE
100
AcDbVertex
100
AcDbPolyFaceMeshVertex
 10
10.83873653411865
 20
-21.91922569274902
 30
0.0057547707110643
 70
   192
  0
VERTEX
  5
6B
330
3C
100
AcDbEntity
  8
BASE
100
AcDbVertex
100
AcDbPolyFaceMeshVertex
 10
10.84029197692871
 20
-21.31586456298828
 30
0.000000000000009
 70
   192
  0
VERTEX
  5
6C
330
3C
100
AcDbEntity
  8
BASE
100
AcDbVertex
100
AcDbPolyFaceMeshVertex
 10
10.84029197692871
 20
-10.95490550994873
 30
14.73552417755127
 70
   192
  0
VERTEX
  5
6D
330
3C
100
AcDbEntity
  8
BASE
100
AcDbVertex
100
AcDbPolyFaceMeshVertex
 10
10.83873653411865
 20
-11.41683959960938
 30
15.12372016906738
 70
   192
  0
VERTEX
  5
6E
330
3C
100
AcDbEntity
  8
BASE
100
AcDbVertex
100
AcDbPolyFaceMeshVertex
 10
10.83873653411865
 20
-21.91922569274902
 30
0.0057547707110643
 70
   192
  0
VERTEX
  5
6F
330
3C
100
AcDbEntity
  8
BASE
100
AcDbVertex
100
AcDbPolyFaceMeshVertex
 10
10.84029197692871
 20
-21.31586456298828
 30
0.000000000000009
 70
   192
  0
VERTEX
  5
70
330
3C
100
AcDbEntity
  8
BASE
100
AcDbVertex
100
AcDbPolyFaceMeshVertex
 10
11.53980922698975
 20
-10.95490550994873
 30
14.73552417755127
 70
   192
  0
VERTEX
  5
71
330
3C
100
AcDbEntity
  8
BASE
100
AcDbVertex
100
AcDbPolyFaceMeshVertex
 10
11.53998184204102
 20
-11.41154766082764
 30
15.11927890777588
 70
   192
  0
VERTEX
  5
72
330
3C
100
AcDbEntity
  8
BASE
100
AcDbVertex
100
AcDbPolyFaceMeshVertex
 10
11.53998184204102
 20
-21.91231727600098
 30
0.0056940438225865
 70
   192
  0
VERTEX
  5
73
330
3C
100
AcDbEntity
  8
BASE
100
AcDbVertex
100
AcDbPolyFaceMeshVertex
 10
11.53980922698975
 20
-21.31586456298828
 30
0.000000000000009
 70
   192
  0
VERTEX
  5
74
330
3C
100
AcDbEntity
  8
BASE
100
AcDbVertex
100
AcDbPolyFaceMeshVertex
 10
10.84029197692871
 20
-21.31586456298828
 30
0.000000000000009
 70
   192
  0
VERTEX
  5
75
330
3C
100
AcDbEntity
  8
BASE
100
AcDbVertex
100
AcDbPolyFaceMeshVertex
 10
11.53980922698975
 20
-21.31586456298828
 30
0.000000000000009
 70
   192
  0
VERTEX
  5
76
330
3C
100
AcDbEntity
  8
BASE
100
AcDbVertex
100
AcDbPolyFaceMeshVertex
 10
11.53980922698975
 20
-10.95490550994873
 30
14.73552417755127
 70
   192
  0
VERTEX
  5
77
330
3C
100
AcDbEntity
  8
BASE
100
AcDbVertex
100
AcDbPolyFaceMeshVertex
 10
10.84029197692871
 20
-10.95490550994873
 30
14.73552417755127
 70
   192
  0
VERTEX
  5
78
330
3C
100
AcDbEntity
  8
BASE
100
AcDbVertex
100
AcDbPolyFaceMeshVertex
 10
10.84029197692871
 20
-9.711578369140625
 30
17.86628913879395
 70
   192
  0
VERTEX
  5
79
330
3C
100
AcDbEntity
  8
BASE
100
AcDbVertex
100
AcDbPolyFaceMeshVertex
 10
10.84029197692871
 20
-9.711578369140625
 30
16.91643142700195
 70
   192
  0
VERTEX
  5
7A
330
3C
100
AcDbEntity
  8
BASE
100
AcDbVertex
100
AcDbPolyFaceMeshVertex
 10
10.83873653411865
 20
-10.53225708007812
 30
17.2850399017334
 70
   192
  0
VERTEX
  5
7B
330
3C
100
AcDbEntity
  8
BASE
100
AcDbVertex
100
AcDbPolyFaceMeshVertex
 10
10.83873653411865
 20
-10.44791316986084
 30
17.86628913879395
 70
   192
  0
VERTEX
  5
7C
330
3C
100
AcDbEntity
  8
BASE
100
AcDbVertex
100
AcDbPolyFaceMeshVertex
 10
10.84029197692871
 20
-9.711578369140625
 30
16.91643142700195
 70
   192
  0
VERTEX
  5
7D
330
3C
100
AcDbEntity
  8
BASE
100
AcDbVertex
100
AcDbPolyFaceMeshVertex
 10
10.84029197692871
 20
-10.2104377746582
 30
15.75596618652344
 70
   192
  0
VERTEX
  5
7E
330
3C
100
AcDbEntity
  8
BASE
100
AcDbVertex
100
AcDbPolyFaceMeshVertex
 10
10.83873653411865
 20
-10.672926902771
 30
16.71479988098145
 70
   192
  0
VERTEX
  5
7F
330
3C
100
AcDbEntity
  8
BASE
100
AcDbVertex
100
AcDbPolyFaceMeshVertex
 10
10.83873653411865
 20
-10.53225708007812
 30
17.2850399017334
 70
   192
  0
VERTEX
  5
80
330
3C
100
AcDbEntity
  8
BASE
100
AcDbVertex
100
AcDbPolyFaceMeshVertex
 10
10.84029197692871
 20
-10.2104377746582
 30
15.75596618652344
 70
   192
  0
VERTEX
  5
81
330
3C
100
AcDbEntity
  8
BASE
100
AcDbVertex
100
AcDbPolyFaceMeshVertex
 10
10.84029197692871
 20
-10.58267116546631
 30
15.24574375152588
 70
   192
  0
VERTEX
  5
82
330
3C
100
AcDbEntity
  8
BASE
100
AcDbVertex
100
AcDbPolyFaceMeshVertex
 10
10.83873653411865
 20
-10.868577003479
 30
16.16100883483887
 70
   192
  0
VERTEX
  5
83
330
3C
100
AcDbEntity
  8
BASE
100
AcDbVertex
100
AcDbPolyFaceMeshVertex
 10
10.83873653411865
 20
-10.672926902771
 30
16.71479988098145
 70
   192
  0
VERTEX
  5
84
330
3C
100
AcDbEntity
  8
BASE
100
AcDbVertex
100
AcDbPolyFaceMeshVertex
 10
10.84029197692871
 20
-10.58267116546631
 30
15.24574375152588
 70
   192
  0
VERTEX
  5
85
330
3C
100
AcDbEntity
  8
BASE
100
AcDbVertex
100
AcDbPolyFaceMeshVertex
 10
10.84029197692871
 20
-10.76878929138184
 30
14.99063396453857
 70
   192
  0
VERTEX
  5
86
330
3C
100
AcDbEntity
  8
BASE
100
AcDbVertex
100
AcDbPolyFaceMeshVertex
 10
10.83873653411865
 20
-11.11733913421631
 30
15.62895584106445
 70
   192
  0
VERTEX
  5
87
330
3C
100
AcDbEntity
  8
BASE
100
AcDbVertex
100
AcDbPolyFaceMeshVertex
 10
10.83873653411865
 20
-10.868577003479
 30
16.16100883483887
 70
   192
  0
VERTEX
  5
88
330
3C
100
AcDbEntity
  8
BASE
100
AcDbVertex
100
AcDbPolyFaceMeshVertex
 10
10.84029197692871
 20
-10.76878929138184
 30
14.99063396453857
 70
   192
  0
VERTEX
  5
89
330
3C
100
AcDbEntity
  8
BASE
100
AcDbVertex
100
AcDbPolyFaceMeshVertex
 10
10.84029197692871
 20
-10.95490550994873
 30
14.73552417755127
 70
   192
  0
VERTEX
  5
8A
330
3C
100
AcDbEntity
  8
BASE
100
AcDbVertex
100
AcDbPolyFaceMeshVertex
 10
10.83873653411865
 20
-11.41683959960938
 30
15.12372016906738
 70
   192
  0
VERTEX
  5
8B
330
3C
100
AcDbEntity
  8
BASE
100
AcDbVertex
100
AcDbPolyFaceMeshVertex
 10
10.83873653411865
 20
-11.11733913421631
 30
15.62895584106445
 70
   192
  0
VERTEX
  5
8C
330
3C
100
AcDbEntity
  8
BASE
100
AcDbVertex
100
AcDbPolyFaceMeshVertex
 10
11.53980922698975
 20
-10.58267116546631
 30
15.24574375152588
 70
   192
  0
VERTEX
  5
8D
330
3C
100
AcDbEntity
  8
BASE
100
AcDbVertex
100
AcDbPolyFaceMeshVertex
 10
11.53980922698975
 20
-10.76878929138184
 30
14.99063396453857
 70
   192
  0
VERTEX
  5
8E
330
3C
100
AcDbEntity
  8
BASE
100
AcDbVertex
100
AcDbPolyFaceMeshVertex
 10
11.54136371612549
 20
-11.11733913421631
 30
15.62895584106445
 70
   192
  0
VERTEX
  5
8F
330
3C
100
AcDbEntity
  8
BASE
100
AcDbVertex
100
AcDbPolyFaceMeshVertex
 10
11.54136371612549
 20
-10.868577003479
 30
16.16100883483887
 70
   192
  0
VERTEX
  5
90
330
3C
100
AcDbEntity
  8
BASE
100
AcDbVertex
100
AcDbPolyFaceMeshVertex
 10
11.53980922698975
 20
-10.76878929138184
 30
14.99063396453857
 70
   192
  0
VERTEX
  5
91
330
3C
100
AcDbEntity
  8
BASE
100
AcDbVertex
100
AcDbPolyFaceMeshVertex
 10
11.53980922698975
 20
-10.95490550994873
 30
14.73552417755127
 70
   192
  0
VERTEX
  5
92
330
3C
100
AcDbEntity
  8
BASE
100
AcDbVertex
100
AcDbPolyFaceMeshVertex
 10
11.54136371612549
 20
-11.41683959960938
 30
15.12372016906738
 70
   192
  0
VERTEX
  5
93
330
3C
100
AcDbEntity
  8
BASE
100
AcDbVertex
100
AcDbPolyFaceMeshVertex
 10
11.54136371612549
 20
-11.11733913421631
 30
15.62895584106445
 70
   192
  0
VERTEX
  5
94
330
3C
100
AcDbEntity
  8
BASE
100
AcDbVertex
100
AcDbPolyFaceMeshVertex
 10
11.53980922698975
 20
-10.2104377746582
 30
15.75596618652344
 70
   192
  0
VERTEX
  5
95
330
3C
100
AcDbEntity
  8
BASE
100
AcDbVertex
100
AcDbPolyFaceMeshVertex
 10
11.53980922698975
 20
-10.58267116546631
 30
15.24574375152588
 70
   192
  0
VERTEX
  5
96
330
3C
100
AcDbEntity
  8
BASE
100
AcDbVertex
100
AcDbPolyFaceMeshVertex
 10
11.54136371612549
 20
-10.868577003479
 30
16.16100883483887
 70
   192
  0
VERTEX
  5
97
330
3C
100
AcDbEntity
  8
BASE
100
AcDbVertex
100
AcDbPolyFaceMeshVertex
 10
11.54136371612549
 20
-10.672926902771
 30
16.71479988098145
 70
   192
  0
VERTEX
  5
98
330
3C
100
AcDbEntity
  8
BASE
100
AcDbVertex
100
AcDbPolyFaceMeshVertex
 10
11.53980922698975
 20
-9.711578369140625
 30
17.86628913879395
 70
   192
  0
VERTEX
  5
99
330
3C
100
AcDbEntity
  8
BASE
100
AcDbVertex
100
AcDbPolyFaceMeshVertex
 10
11.53980922698975
 20
-9.711578369140625
 30
16.91643142700195
 70
   192
  0
VERTEX
  5
9A
330
3C
100
AcDbEntity
  8
BASE
100
AcDbVertex
100
AcDbPolyFaceMeshVertex
 10
11.54136371612549
 20
-10.53225708007812
 30
17.2850399017334
 70
   192
  0
VERTEX
  5
9B
330
3C
100
AcDbEntity
  8
BASE
100
AcDbVertex
100
AcDbPolyFaceMeshVertex
 10
11.54136371612549
 20
-10.44791316986084
 30
17.86628913879395
 70
   192
  0
VERTEX
  5
9C
330
3C
100
AcDbEntity
  8
BASE
100
AcDbVertex
100
AcDbPolyFaceMeshVertex
 10
11.53980922698975
 20
-9.711578369140625
 30
16.91643142700195
 70
   192
  0
VERTEX
  5
9D
330
3C
100
AcDbEntity
  8
BASE
100
AcDbVertex
100
AcDbPolyFaceMeshVertex
 10
11.53980922698975
 20
-10.2104377746582
 30
15.75596618652344
 70
   192
  0
VERTEX
  5
9E
330
3C
100
AcDbEntity
  8
BASE
100
AcDbVertex
100
AcDbPolyFaceMeshVertex
 10
11.54136371612549
 20
-10.672926902771
 30
16.71479988098145
 70
   192
  0
VERTEX
  5
9F
330
3C
100
AcDbEntity
  8
BASE
100
AcDbVertex
100
AcDbPolyFaceMeshVertex
 10
11.54136371612549
 20
-10.53225708007812
 30
17.2850399017334
 70
   192
  0
VERTEX
  5
A0
330
3C
100
AcDbEntity
  8
BASE
100
AcDbVertex
100
AcDbPolyFaceMeshVertex
 10
10.84029197692871
 20
-9.711578369140625
 30
17.86628913879395
 70
   192
  0
VERTEX
  5
A1
330
3C
100
AcDbEntity
  8
BASE
100
AcDbVertex
100
AcDbPolyFaceMeshVertex
 10
10.2221155166626
 20
-9.324382781982422
 30
17.86628913879395
 70
   192
  0
VERTEX
  5
A2
330
3C
100
AcDbEntity
  8
BASE
100
AcDbVertex
100
AcDbPolyFaceMeshVertex
 10
10.58863735198975
 20
-8.726510047912598
 30
17.86628913879395
 70
   192
  0
VERTEX
  5
A3
330
3C
100
AcDbEntity
  8
BASE
100
AcDbVertex
100
AcDbPolyFaceMeshVertex
 10
11.21175098419189
 20
-9.118837356567383
 30
17.86628913879395
 70
   192
  0
VERTEX
  5
A4
330
3C
100
AcDbEntity
  8
BASE
100
AcDbVertex
100
AcDbPolyFaceMeshVertex
 10
10.40537643432617
 20
-9.025446891784668
 30
17.86628913879395
 70
   192
  0
VERTEX
  5
A5
330
3C
100
AcDbEntity
  8
BASE
100
AcDbVertex
100
AcDbPolyFaceMeshVertex
 10
10.09502410888672
 20
-8.835186958312988
 30
17.86628913879395
 70
   192
  0
VERTEX
  5
A6
330
3C
100
AcDbEntity
  8
BASE
100
AcDbVertex
100
AcDbPolyFaceMeshVertex
 10
10.05455875396729
 20
-9.106807708740234
 30
17.86628913879395
 70
   192
  0
VERTEX
  5
A7
330
3C
100
AcDbEntity
  8
BASE
100
AcDbVertex
100
AcDbPolyFaceMeshVertex
 10
10.2221155166626
 20
-9.324382781982422
 30
17.86628913879395
 70
   192
  0
VERTEX
  5
A8
330
3C
100
AcDbEntity
  8
BASE
100
AcDbVertex
100
AcDbPolyFaceMeshVertex
 10
10.40537643432617
 20
-9.025446891784668
 30
17.86628913879395
 70
   192
  0
VERTEX
  5
A9
330
3C
100
AcDbEntity
  8
BASE
100
AcDbVertex
100
AcDbPolyFaceMeshVertex
 10
10.09502410888672
 20
-8.835186958312988
 30
17.86628913879395
 70
   192
  0
VERTEX
  5
AA
330
3C
100
AcDbEntity
  8
BASE
100
AcDbVertex
100
AcDbPolyFaceMeshVertex
 10
10.31872367858887
 20
-8.675898551940918
 30
17.86628913879395
 70
   192
  0
VERTEX
  5
AB
330
3C
100
AcDbEntity
  8
BASE
100
AcDbVertex
100
AcDbPolyFaceMeshVertex
 10
10.58863735198975
 20
-8.726510047912598
 30
17.86628913879395
 70
   192
  0
VERTEX
  5
AC
330
3C
100
AcDbEntity
  8
BASE
100
AcDbVertex
100
AcDbPolyFaceMeshVertex
 10
9.786748886108398
 20
-9.05134391784668
 30
14.73552417755127
 70
   192
  0
VERTEX
  5
AD
330
3C
100
AcDbEntity
  8
BASE
100
AcDbVertex
100
AcDbPolyFaceMeshVertex
 10
9.39971923828125
 20
-8.809003829956055
 30
15.11927890777588
 70
   192
  0
VERTEX
  5
AE
330
3C
100
AcDbEntity
  8
BASE
100
AcDbVertex
100
AcDbPolyFaceMeshVertex
 10
9.767610549926758
 20
-8.21198844909668
 30
15.12372016906738
 70
   192
  0
VERTEX
  5
AF
330
3C
100
AcDbEntity
  8
BASE
100
AcDbVertex
100
AcDbPolyFaceMeshVertex
 10
10.15820693969727
 20
-8.458601951599121
 30
14.73552417755127
 70
   192
  0
VERTEX
  5
B0
330
3C
100
AcDbEntity
  8
BASE
100
AcDbVertex
100
AcDbPolyFaceMeshVertex
 10
0.6737021207809448
 20
-3.340380907058716
 30
0.0
 70
   192
  0
VERTEX
  5
B1
330
3C
100
AcDbEntity
  8
BASE
100
AcDbVertex
100
AcDbPolyFaceMeshVertex
 10
0.1682008653879166
 20
-3.023797035217285
 30
0.0056940438225865
 70
   192
  0
VERTEX
  5
B2
330
3C
100
AcDbEntity
  8
BASE
100
AcDbVertex
100
AcDbPolyFaceMeshVertex
 10
0.5347233414649963
 20
-2.425923347473145
 30
0.0057547707110643
 70
   192
  0
VERTEX
  5
B3
330
3C
100
AcDbEntity
  8
BASE
100
AcDbVertex
100
AcDbPolyFaceMeshVertex
 10
1.045161366462708
 20
-2.747638940811157
 30
0.0
 70
   192
  0
VERTEX
  5
B4
330
3C
100
AcDbEntity
  8
BASE
100
AcDbVertex
100
AcDbPolyFaceMeshVertex
 10
10.15820693969727
 20
-8.458601951599121
 30
14.73552417755127
 70
   192
  0
VERTEX
  5
B5
330
3C
100
AcDbEntity
  8
BASE
100
AcDbVertex
100
AcDbPolyFaceMeshVertex
 10
9.767610549926758
 20
-8.21198844909668
 30
15.12372016906738
 70
   192
  0
VERTEX
  5
B6
330
3C
100
AcDbEntity
  8
BASE
100
AcDbVertex
100
AcDbPolyFaceMeshVertex
 10
0.5347233414649963
 20
-2.425923347473145
 30
0.0057547707110643
 70
   192
  0
VERTEX
  5
B7
330
3C
100
AcDbEntity
  8
BASE
100
AcDbVertex
100
AcDbPolyFaceMeshVertex
 10
1.045161366462708
 20
-2.747638940811157
 30
0.0
 70
   192
  0
VERTEX
  5
B8
330
3C
100
AcDbEntity
  8
BASE
100
AcDbVertex
100
AcDbPolyFaceMeshVertex
 10
9.786748886108398
 20
-9.05134391784668
 30
14.73552417755127
 70
   192
  0
VERTEX
  5
B9
330
3C
100
AcDbEntity
  8
BASE
100
AcDbVertex
100
AcDbPolyFaceMeshVertex
 10
9.39971923828125
 20
-8.809003829956055
 30
15.11927890777588
 70
   192
  0
VERTEX
  5
BA
330
3C
100
AcDbEntity
  8
BASE
100
AcDbVertex
100
AcDbPolyFaceMeshVertex
 10
0.1682008653879166
 20
-3.023797035217285
 30
0.0056940438225865
 70
   192
  0
VERTEX
  5
BB
330
3C
100
AcDbEntity
  8
BASE
100
AcDbVertex
100
AcDbPolyFaceMeshVertex
 10
0.6737021207809448
 20
-3.340380907058716
 30
0.0
 70
   192
  0
VERTEX
  5
BC
330
3C
100
AcDbEntity
  8
BASE
100
AcDbVertex
100
AcDbPolyFaceMeshVertex
 10
1.045161366462708
 20
-2.747638940811157
 30
0.0
 70
   192
  0
VERTEX
  5
BD
330
3C
100
AcDbEntity
  8
BASE
100
AcDbVertex
100
AcDbPolyFaceMeshVertex
 10
0.6737021207809448
 20
-3.340380907058716
 30
0.0
 70
   192
  0
VERTEX
  5
BE
330
3C
100
AcDbEntity
  8
BASE
100
AcDbVertex
100
AcDbPolyFaceMeshVertex
 10
9.786748886108398
 20
-9.05134391784668
 30
14.73552417755127
 70
   192
  0
VERTEX
  5
BF
330
3C
100
AcDbEntity
  8
BASE
100
AcDbVertex
100
AcDbPolyFaceMeshVertex
 10
10.15820693969727
 20
-8.458601951599121
 30
14.73552417755127
 70
   192
  0
VERTEX
  5
C0
330
3C
100
AcDbEntity
  8
BASE
100
AcDbVertex
100
AcDbPolyFaceMeshVertex
 10
11.21175098419189
 20
-9.118837356567383
 30
17.86628913879395
 70
   192
  0
VERTEX
  5
C1
330
3C
100
AcDbEntity
  8
BASE
100
AcDbVertex
100
AcDbPolyFaceMeshVertex
 10
11.21175098419189
 20
-9.118837356567383
 30
16.91643142700195
 70
   192
  0
VERTEX
  5
C2
330
3C
100
AcDbEntity
  8
BASE
100
AcDbVertex
100
AcDbPolyFaceMeshVertex
 10
10.51716709136963
 20
-8.681720733642578
 30
17.2850399017334
 70
   192
  0
VERTEX
  5
C3
330
3C
100
AcDbEntity
  8
BASE
100
AcDbVertex
100
AcDbPolyFaceMeshVertex
 10
10.58863735198975
 20
-8.726510047912598
 30
17.86628913879395
 70
   192
  0
VERTEX
  5
C4
330
3C
100
AcDbEntity
  8
BASE
100
AcDbVertex
100
AcDbPolyFaceMeshVertex
 10
11.21175098419189
 20
-9.118837356567383
 30
16.91643142700195
 70
   192
  0
VERTEX
  5
C5
330
3C
100
AcDbEntity
  8
BASE
100
AcDbVertex
100
AcDbPolyFaceMeshVertex
 10
10.78903961181641
 20
-8.853931427001953
 30
15.75596618652344
 70
   192
  0
VERTEX
  5
C6
330
3C
100
AcDbEntity
  8
BASE
100
AcDbVertex
100
AcDbPolyFaceMeshVertex
 10
10.39796924591064
 20
-8.607022285461426
 30
16.71479988098145
 70
   192
  0
VERTEX
  5
C7
330
3C
100
AcDbEntity
  8
BASE
100
AcDbVertex
100
AcDbPolyFaceMeshVertex
 10
10.51716709136963
 20
-8.681720733642578
 30
17.2850399017334
 70
   192
  0
VERTEX
  5
C8
330
3C
100
AcDbEntity
  8
BASE
100
AcDbVertex
100
AcDbPolyFaceMeshVertex
 10
10.78903961181641
 20
-8.853931427001953
 30
15.75596618652344
 70
   192
  0
VERTEX
  5
C9
330
3C
100
AcDbEntity
  8
BASE
100
AcDbVertex
100
AcDbPolyFaceMeshVertex
 10
10.47362327575684
 20
-8.656267166137695
 30
15.24574375152588
 70
   192
  0
VERTEX
  5
CA
330
3C
100
AcDbEntity
  8
BASE
100
AcDbVertex
100
AcDbPolyFaceMeshVertex
 10
10.23218536376953
 20
-8.503128051757812
 30
16.16100883483887
 70
   192
  0
VERTEX
  5
CB
330
3C
100
AcDbEntity
  8
BASE
100
AcDbVertex
100
AcDbPolyFaceMeshVertex
 10
10.39796924591064
 20
-8.607022285461426
 30
16.71479988098145
 70
   192
  0
VERTEX
  5
CC
330
3C
100
AcDbEntity
  8
BASE
100
AcDbVertex
100
AcDbPolyFaceMeshVertex
 10
10.47362327575684
 20
-8.656267166137695
 30
15.24574375152588
 70
   192
  0
VERTEX
  5
CD
330
3C
100
AcDbEntity
  8
BASE
100
AcDbVertex
100
AcDbPolyFaceMeshVertex
 10
10.31591415405273
 20
-8.55743408203125
 30
14.99063396453857
 70
   192
  0
VERTEX
  5
CE
330
3C
100
AcDbEntity
  8
BASE
100
AcDbVertex
100
AcDbPolyFaceMeshVertex
 10
10.02139472961426
 20
-8.3710298538208
 30
15.62895584106445
 70
   192
  0
VERTEX
  5
CF
330
3C
100
AcDbEntity
  8
BASE
100
AcDbVertex
100
AcDbPolyFaceMeshVertex
 10
10.23218536376953
 20
-8.503128051757812
 30
16.16100883483887
 70
   192
  0
VERTEX
  5
D0
330
3C
100
AcDbEntity
  8
BASE
100
AcDbVertex
100
AcDbPolyFaceMeshVertex
 10
10.31591415405273
 20
-8.55743408203125
 30
14.99063396453857
 70
   192
  0
VERTEX
  5
D1
330
3C
100
AcDbEntity
  8
BASE
100
AcDbVertex
100
AcDbPolyFaceMeshVertex
 10
10.15820693969727
 20
-8.458601951599121
 30
14.73552417755127
 70
   192
  0
VERTEX
  5
D2
330
3C
100
AcDbEntity
  8
BASE
100
AcDbVertex
100
AcDbPolyFaceMeshVertex
 10
9.767610549926758
 20
-8.21198844909668
 30
15.12372016906738
 70
   192
  0
VERTEX
  5
D3
330
3C
100
AcDbEntity
  8
BASE
100
AcDbVertex
100
AcDbPolyFaceMeshVertex
 10
10.02139472961426
 20
-8.3710298538208
 30
15.62895584106445
 70
   192
  0
VERTEX
  5
D4
330
3C
100
AcDbEntity
  8
BASE
100
AcDbVertex
100
AcDbPolyFaceMeshVertex
 10
10.10216426849365
 20
-9.249008178710938
 30
15.24574375152588
 70
   192
  0
VERTEX
  5
D5
330
3C
100
AcDbEntity
  8
BASE
100
AcDbVertex
100
AcDbPolyFaceMeshVertex
 10
9.944456100463867
 20
-9.150176048278809
 30
14.99063396453857
 70
   192
  0
VERTEX
  5
D6
330
3C
100
AcDbEntity
  8
BASE
100
AcDbVertex
100
AcDbPolyFaceMeshVertex
 10
9.648283958435059
 20
-8.966404914855957
 30
15.62895584106445
 70
   192
  0
VERTEX
  5
D7
330
3C
100
AcDbEntity
  8
BASE
100
AcDbVertex
100
AcDbPolyFaceMeshVertex
 10
9.859074592590332
 20
-9.098504066467285
 30
16.16100883483887
 70
   192
  0
VERTEX
  5
D8
330
3C
100
AcDbEntity
  8
BASE
100
AcDbVertex
100
AcDbPolyFaceMeshVertex
 10
9.944456100463867
 20
-9.150176048278809
 30
14.99063396453857
 70
   192
  0
VERTEX
  5
D9
330
3C
100
AcDbEntity
  8
BASE
100
AcDbVertex
100
AcDbPolyFaceMeshVertex
 10
9.786748886108398
 20
-9.05134391784668
 30
14.73552417755127
 70
   192
  0
VERTEX
  5
DA
330
3C
100
AcDbEntity
  8
BASE
100
AcDbVertex
100
AcDbPolyFaceMeshVertex
 10
9.394499778747559
 20
-8.807364463806152
 30
15.12372016906738
 70
   192
  0
VERTEX
  5
DB
330
3C
100
AcDbEntity
  8
BASE
100
AcDbVertex
100
AcDbPolyFaceMeshVertex
 10
9.648283958435059
 20
-8.966404914855957
 30
15.62895584106445
 70
   192
  0
VERTEX
  5
DC
330
3C
100
AcDbEntity
  8
BASE
100
AcDbVertex
100
AcDbPolyFaceMeshVertex
 10
10.41757965087891
 20
-9.446672439575195
 30
15.75596618652344
 70
   192
  0
VERTEX
  5
DD
330
3C
100
AcDbEntity
  8
BASE
100
AcDbVertex
100
AcDbPolyFaceMeshVertex
 10
10.10216426849365
 20
-9.249008178710938
 30
15.24574375152588
 70
   192
  0
VERTEX
  5
DE
330
3C
100
AcDbEntity
  8
BASE
100
AcDbVertex
100
AcDbPolyFaceMeshVertex
 10
9.859074592590332
 20
-9.098504066467285
 30
16.16100883483887
 70
   192
  0
VERTEX
  5
DF
330
3C
100
AcDbEntity
  8
BASE
100
AcDbVertex
100
AcDbPolyFaceMeshVertex
 10
10.02486038208008
 20
-9.202397346496582
 30
16.71479988098145
 70
   192
  0
VERTEX
  5
E0
330
3C
100
AcDbEntity
  8
BASE
100
AcDbVertex
100
AcDbPolyFaceMeshVertex
 10
10.84029197692871
 20
-9.711578369140625
 30
17.86628913879395
 70
   192
  0
VERTEX
  5
E1
330
3C
100
AcDbEntity
  8
BASE
100
AcDbVertex
100
AcDbPolyFaceMeshVertex
 10
10.84029197692871
 20
-9.711578369140625
 30
16.91643142700195
 70
   192
  0
VERTEX
  5
E2
330
3C
100
AcDbEntity
  8
BASE
100
AcDbVertex
100
AcDbPolyFaceMeshVertex
 10
10.14405632019043
 20
-9.277095794677734
 30
17.2850399017334
 70
   192
  0
VERTEX
  5
E3
330
3C
100
AcDbEntity
  8
BASE
100
AcDbVertex
100
AcDbPolyFaceMeshVertex
 10
10.21552753448486
 20
-9.32188606262207
 30
17.86628913879395
 70
   192
  0
VERTEX
  5
E4
330
3C
100
AcDbEntity
  8
BASE
100
AcDbVertex
100
AcDbPolyFaceMeshVertex
 10
10.84029197692871
 20
-9.711578369140625
 30
16.91643142700195
 70
   192
  0
VERTEX
  5
E5
330
3C
100
AcDbEntity
  8
BASE
100
AcDbVertex
100
AcDbPolyFaceMeshVertex
 10
10.41757965087891
 20
-9.446672439575195
 30
15.75596618652344
 70
   192
  0
VERTEX
  5
E6
330
3C
100
AcDbEntity
  8
BASE
100
AcDbVertex
100
AcDbPolyFaceMeshVertex
 10
10.02486038208008
 20
-9.202397346496582
 30
16.71479988098145
 70
   192
  0
VERTEX
  5
E7
330
3C
100
AcDbEntity
  8
BASE
100
AcDbVertex
100
AcDbPolyFaceMeshVertex
 10
10.14405632019043
 20
-9.277095794677734
 30
17.2850399017334
 70
   192
  0
VERTEX
  5
E8
330
3C
100
AcDbEntity
  8
BASE
100
AcDbVertex
100
AcDbPolyFaceMeshVertex
 10
11.53980922698975
 20
-9.711578369140625
 30
17.86628913879395
 70
   192
  0
VERTEX
  5
E9
330
3C
100
AcDbEntity
  8
BASE
100
AcDbVertex
100
AcDbPolyFaceMeshVertex
 10
12.15798568725586
 20
-9.324382781982422
 30
17.86628913879395
 70
   192
  0
VERTEX
  5
EA
330
3C
100
AcDbEntity
  8
BASE
100
AcDbVertex
100
AcDbPolyFaceMeshVertex
 10
11.79146385192871
 20
-8.726510047912598
 30
17.86628913879395
 70
   192
  0
VERTEX
  5
EB
330
3C
100
AcDbEntity
  8
BASE
100
AcDbVertex
100
AcDbPolyFaceMeshVertex
 10
11.16835021972656
 20
-9.118837356567383
 30
17.86628913879395
 70
   192
  0
VERTEX
  5
EC
330
3C
100
AcDbEntity
  8
BASE
100
AcDbVertex
100
AcDbPolyFaceMeshVertex
 10
11.97472381591797
 20
-9.025446891784668
 30
17.86628913879395
 70
   192
  0
VERTEX
  5
ED
330
3C
100
AcDbEntity
  8
BASE
100
AcDbVertex
100
AcDbPolyFaceMeshVertex
 10
12.28507709503174
 20
-8.835186958312988
 30
17.86628913879395
 70
   192
  0
VERTEX
  5
EE
330
3C
100
AcDbEntity
  8
BASE
100
AcDbVertex
100
AcDbPolyFaceMeshVertex
 10
12.32554149627686
 20
-9.106807708740234
 30
17.86628913879395
 70
   192
  0
VERTEX
  5
EF
330
3C
100
AcDbEntity
  8
BASE
100
AcDbVertex
100
AcDbPolyFaceMeshVertex
 10
12.15798568725586
 20
-9.324382781982422
 30
17.86628913879395
 70
   192
  0
VERTEX
  5
F0
330
3C
100
AcDbEntity
  8
BASE
100
AcDbVertex
100
AcDbPolyFaceMeshVertex
 10
11.97472381591797
 20
-9.025446891784668
 30
17.86628913879395
 70
   192
  0
VERTEX
  5
F1
330
3C
100
AcDbEntity
  8
BASE
100
AcDbVertex
100
AcDbPolyFaceMeshVertex
 10
12.28507709503174
 20
-8.835186958312988
 30
17.86628913879395
 70
   192
  0
VERTEX
  5
F2
330
3C
100
AcDbEntity
  8
BASE
100
AcDbVertex
100
AcDbPolyFaceMeshVertex
 10
12.06137561798096
 20
-8.675898551940918
 30
17.86628913879395
 70
   192
  0
VERTEX
  5
F3
330
3C
100
AcDbEntity
  8
BASE
100
AcDbVertex
100
AcDbPolyFaceMeshVertex
 10
11.79146385192871
 20
-8.726510047912598
 30
17.86628913879395
 70
   192
  0
VERTEX
  5
F4
330
3C
100
AcDbEntity
  8
BASE
100
AcDbVertex
100
AcDbPolyFaceMeshVertex
 10
12.59335231781006
 20
-9.05134391784668
 30
14.73552417755127
 70
   192
  0
VERTEX
  5
F5
330
3C
100
AcDbEntity
  8
BASE
100
AcDbVertex
100
AcDbPolyFaceMeshVertex
 10
12.98038291931152
 20
-8.809003829956055
 30
15.11927890777588
 70
   192
  0
VERTEX
  5
F6
330
3C
100
AcDbEntity
  8
BASE
100
AcDbVertex
100
AcDbPolyFaceMeshVertex
 10
12.61249160766602
 20
-8.21198844909668
 30
15.12372016906738
 70
   192
  0
VERTEX
  5
F7
330
3C
100
AcDbEntity
  8
BASE
100
AcDbVertex
100
AcDbPolyFaceMeshVertex
 10
12.22189331054688
 20
-8.458601951599121
 30
14.73552417755127
 70
   192
  0
VERTEX
  5
F8
330
3C
100
AcDbEntity
  8
BASE
100
AcDbVertex
100
AcDbPolyFaceMeshVertex
 10
12.22189331054688
 20
-8.458601951599121
 30
14.73552417755127
 70
   192
  0
VERTEX
  5
F9
330
3C
100
AcDbEntity
  8
BASE
100
AcDbVertex
100
AcDbPolyFaceMeshVertex
 10
12.61249160766602
 20
-8.21198844909668
 30
15.12372016906738
 70
   192
  0
VERTEX
  5
FA
330
3C
100
AcDbEntity
  8
BASE
100
AcDbVertex
100
AcDbPolyFaceMeshVertex
 10
21.84537696838379
 20
-2.425923347473145
 30
0.0057547707110643
 70
   192
  0
VERTEX
  5
FB
330
3C
100
AcDbEntity
  8
BASE
100
AcDbVertex
100
AcDbPolyFaceMeshVertex
 10
21.33493995666504
 20
-2.747638940811157
 30
0.0
 70
   192
  0
VERTEX
  5
FC
330
3C
100
AcDbEntity
  8
BASE
100
AcDbVertex
100
AcDbPolyFaceMeshVertex
 10
12.59335231781006
 20
-9.05134391784668
 30
14.73552417755127
 70
   192
  0
VERTEX
  5
FD
330
3C
100
AcDbEntity
  8
BASE
100
AcDbVertex
100
AcDbPolyFaceMeshVertex
 10
12.98038291931152
 20
-8.809003829956055
 30
15.11927890777588
 70
   192
  0
VERTEX
  5
FE
330
3C
100
AcDbEntity
  8
BASE
100
AcDbVertex
100
AcDbPolyFaceMeshVertex
 10
22.21189880371094
 20
-3.023797035217285
 30
0.0056940438225865
 70
   192
  0
VERTEX
  5
FF
330
3C
100
AcDbEntity
  8
BASE
100
AcDbVertex
100
AcDbPolyFaceMeshVertex
 10
21.70639991760254
 20
-3.340380907058716
 30
0.0
 70
   192
  0
VERTEX
  5
100
330
3C
100
AcDbEntity
  8
BASE
100
AcDbVertex
100
AcDbPolyFaceMeshVertex
 10
21.33493995666504
 20
-2.747638940811157
 30
0.0
 70
   192
  0
VERTEX
  5
101
330
3C
100
AcDbEntity
  8
BASE
100
AcDbVertex
100
AcDbPolyFaceMeshVertex
 10
21.70639991760254
 20
-3.340380907058716
 30
0.0
 70
   192
  0
VERTEX
  5
102
330
3C
100
AcDbEntity
  8
BASE
100
AcDbVertex
100
AcDbPolyFaceMeshVertex
 10
12.59335231781006
 20
-9.05134391784668
 30
14.73552417755127
 70
   192
  0
VERTEX
  5
103
330
3C
100
AcDbEntity
  8
BASE
100
AcDbVertex
100
AcDbPolyFaceMeshVertex
 10
12.22189331054688
 20
-8.458601951599121
 30
14.73552417755127
 70
   192
  0
VERTEX
  5
104
330
3C
100
AcDbEntity
  8
BASE
100
AcDbVertex
100
AcDbPolyFaceMeshVertex
 10
11.16835021972656
 20
-9.118837356567383
 30
17.86628913879395
 70
   192
  0
VERTEX
  5
105
330
3C
100
AcDbEntity
  8
BASE
100
AcDbVertex
100
AcDbPolyFaceMeshVertex
 10
11.16835021972656
 20
-9.118837356567383
 30
16.91643142700195
 70
   192
  0
VERTEX
  5
106
330
3C
100
AcDbEntity
  8
BASE
100
AcDbVertex
100
AcDbPolyFaceMeshVertex
 10
11.86293315887451
 20
-8.681720733642578
 30
17.2850399017334
 70
   192
  0
VERTEX
  5
107
330
3C
100
AcDbEntity
  8
BASE
100
AcDbVertex
100
AcDbPolyFaceMeshVertex
 10
11.79146385192871
 20
-8.726510047912598
 30
17.86628913879395
 70
   192
  0
VERTEX
  5
108
330
3C
100
AcDbEntity
  8
BASE
100
AcDbVertex
100
AcDbPolyFaceMeshVertex
 10
11.16835021972656
 20
-9.118837356567383
 30
16.91643142700195
 70
   192
  0
VERTEX
  5
109
330
3C
100
AcDbEntity
  8
BASE
100
AcDbVertex
100
AcDbPolyFaceMeshVertex
 10
11.59106159210205
 20
-8.853931427001953
 30
15.75596618652344
 70
   192
  0
VERTEX
  5
10A
330
3C
100
AcDbEntity
  8
BASE
100
AcDbVertex
100
AcDbPolyFaceMeshVertex
 10
11.9821310043335
 20
-8.607022285461426
 30
16.71479988098145
 70
   192
  0
VERTEX
  5
10B
330
3C
100
AcDbEntity
  8
BASE
100
AcDbVertex
100
AcDbPolyFaceMeshVertex
 10
11.86293315887451
 20
-8.681720733642578
 30
17.2850399017334
 70
   192
  0
VERTEX
  5
10C
330
3C
100
AcDbEntity
  8
BASE
100
AcDbVertex
100
AcDbPolyFaceMeshVertex
 10
11.59106159210205
 20
-8.853931427001953
 30
15.75596618652344
 70
   192
  0
VERTEX
  5
10D
330
3C
100
AcDbEntity
  8
BASE
100
AcDbVertex
100
AcDbPolyFaceMeshVertex
 10
11.9064769744873
 20
-8.656267166137695
 30
15.24574375152588
 70
   192
  0
VERTEX
  5
10E
330
3C
100
AcDbEntity
  8
BASE
100
AcDbVertex
100
AcDbPolyFaceMeshVertex
 10
12.14791584014893
 20
-8.503128051757812
 30
16.16100883483887
 70
   192
  0
VERTEX
  5
10F
330
3C
100
AcDbEntity
  8
BASE
100
AcDbVertex
100
AcDbPolyFaceMeshVertex
 10
11.9821310043335
 20
-8.607022285461426
 30
16.71479988098145
 70
   192
  0
VERTEX
  5
110
330
3C
100
AcDbEntity
  8
BASE
100
AcDbVertex
100
AcDbPolyFaceMeshVertex
 10
11.9064769744873
 20
-8.656267166137695
 30
15.24574375152588
 70
   192
  0
VERTEX
  5
111
330
3C
100
AcDbEntity
  8
BASE
100
AcDbVertex
100
AcDbPolyFaceMeshVertex
 10
12.06418514251709
 20
-8.55743408203125
 30
14.99063396453857
 70
   192
  0
VERTEX
  5
112
330
3C
100
AcDbEntity
  8
BASE
100
AcDbVertex
100
AcDbPolyFaceMeshVertex
 10
12.35870742797852
 20
-8.3710298538208
 30
15.62895584106445
 70
   192
  0
VERTEX
  5
113
330
3C
100
AcDbEntity
  8
BASE
100
AcDbVertex
100
AcDbPolyFaceMeshVertex
 10
12.14791584014893
 20
-8.503128051757812
 30
16.16100883483887
 70
   192
  0
VERTEX
  5
114
330
3C
100
AcDbEntity
  8
BASE
100
AcDbVertex
100
AcDbPolyFaceMeshVertex
 10
12.06418514251709
 20
-8.55743408203125
 30
14.99063396453857
 70
   192
  0
VERTEX
  5
115
330
3C
100
AcDbEntity
  8
BASE
100
AcDbVertex
100
AcDbPolyFaceMeshVertex
 10
12.22189331054688
 20
-8.458601951599121
 30
14.73552417755127
 70
   192
  0
VERTEX
  5
116
330
3C
100
AcDbEntity
  8
BASE
100
AcDbVertex
100
AcDbPolyFaceMeshVertex
 10
12.61249160766602
 20
-8.21198844909668
 30
15.12372016906738
 70
   192
  0
VERTEX
  5
117
330
3C
100
AcDbEntity
  8
BASE
100
AcDbVertex
100
AcDbPolyFaceMeshVertex
 10
12.35870742797852
 20
-8.3710298538208
 30
15.62895584106445
 70
   192
  0
VERTEX
  5
118
330
3C
100
AcDbEntity
  8
BASE
100
AcDbVertex
100
AcDbPolyFaceMeshVertex
 10
12.2779369354248
 20
-9.249008178710938
 30
15.24574375152588
 70
   192
  0
VERTEX
  5
119
330
3C
100
AcDbEntity
  8
BASE
100
AcDbVertex
100
AcDbPolyFaceMeshVertex
 10
12.43564510345459
 20
-9.150176048278809
 30
14.99063396453857
 70
   192
  0
VERTEX
  5
11A
330
3C
100
AcDbEntity
  8
BASE
100
AcDbVertex
100
AcDbPolyFaceMeshVertex
 10
12.73181629180908
 20
-8.966404914855957
 30
15.62895584106445
 70
   192
  0
VERTEX
  5
11B
330
3C
100
AcDbEntity
  8
BASE
100
AcDbVertex
100
AcDbPolyFaceMeshVertex
 10
12.52102565765381
 20
-9.098504066467285
 30
16.16100883483887
 70
   192
  0
VERTEX
  5
11C
330
3C
100
AcDbEntity
  8
BASE
100
AcDbVertex
100
AcDbPolyFaceMeshVertex
 10
12.43564510345459
 20
-9.150176048278809
 30
14.99063396453857
 70
   192
  0
VERTEX
  5
11D
330
3C
100
AcDbEntity
  8
BASE
100
AcDbVertex
100
AcDbPolyFaceMeshVertex
 10
12.59335231781006
 20
-9.05134391784668
 30
14.73552417755127
 70
   192
  0
VERTEX
  5
11E
330
3C
100
AcDbEntity
  8
BASE
100
AcDbVertex
100
AcDbPolyFaceMeshVertex
 10
12.98560047149658
 20
-8.807364463806152
 30
15.12372016906738
 70
   192
  0
VERTEX
  5
11F
330
3C
100
AcDbEntity
  8
BASE
100
AcDbVertex
100
AcDbPolyFaceMeshVertex
 10
12.73181629180908
 20
-8.966404914855957
 30
15.62895584106445
 70
   192
  0
VERTEX
  5
120
330
3C
100
AcDbEntity
  8
BASE
100
AcDbVertex
100
AcDbPolyFaceMeshVertex
 10
11.96252155303955
 20
-9.446672439575195
 30
15.75596618652344
 70
   192
  0
VERTEX
  5
121
330
3C
100
AcDbEntity
  8
BASE
100
AcDbVertex
100
AcDbPolyFaceMeshVertex
 10
12.2779369354248
 20
-9.249008178710938
 30
15.24574375152588
 70
   192
  0
VERTEX
  5
122
330
3C
100
AcDbEntity
  8
BASE
100
AcDbVertex
100
AcDbPolyFaceMeshVertex
 10
12.52102565765381
 20
-9.098504066467285
 30
16.16100883483887
 70
   192
  0
VERTEX
  5
123
330
3C
100
AcDbEntity
  8
BASE
100
AcDbVertex
100
AcDbPolyFaceMeshVertex
 10
12.35524082183838
 20
-9.202397346496582
 30
16.71479988098145
 70
   192
  0
VERTEX
  5
124
330
3C
100
AcDbEntity
  8
BASE
100
AcDbVertex
100
AcDbPolyFaceMeshVertex
 10
11.53980922698975
 20
-9.711578369140625
 30
17.86628913879395
 70
   192
  0
VERTEX
  5
125
330
3C
100
AcDbEntity
  8
BASE
100
AcDbVertex
100
AcDbPolyFaceMeshVertex
 10
11.53980922698975
 20
-9.711578369140625
 30
16.91643142700195
 70
   192
  0
VERTEX
  5
126
330
3C
100
AcDbEntity
  8
BASE
100
AcDbVertex
100
AcDbPolyFaceMeshVertex
 10
12.23604488372803
 20
-9.277095794677734
 30
17.2850399017334
 70
   192
  0
VERTEX
  5
127
330
3C
100
AcDbEntity
  8
BASE
100
AcDbVertex
100
AcDbPolyFaceMeshVertex
 10
12.16457366943359
 20
-9.32188606262207
 30
17.86628913879395
 70
   192
  0
VERTEX
  5
128
330
3C
100
AcDbEntity
  8
BASE
100
AcDbVertex
100
AcDbPolyFaceMeshVertex
 10
11.53980922698975
 20
-9.711578369140625
 30
16.91643142700195
 70
   192
  0
VERTEX
  5
129
330
3C
100
AcDbEntity
  8
BASE
100
AcDbVertex
100
AcDbPolyFaceMeshVertex
 10
11.96252155303955
 20
-9.446672439575195
 30
15.75596618652344
 70
   192
  0
VERTEX
  5
12A
330
3C
100
AcDbEntity
  8
BASE
100
AcDbVertex
100
AcDbPolyFaceMeshVertex
 10
12.35524082183838
 20
-9.202397346496582
 30
16.71479988098145
 70
   192
  0
VERTEX
  5
12B
330
3C
100
AcDbEntity
  8
BASE
100
AcDbVertex
100
AcDbPolyFaceMeshVertex
 10
12.23604488372803
 20
-9.277095794677734
 30
17.2850399017334
 70
   192
  0
VERTEX
  5
12C
330
3C
100
AcDbEntity
  8
BASE
100
AcDbFaceRecord
 10
0.0
 20
0.0
 30
0.0
 70
   128
 71
     1
 72
     2
 73
     3
 74
     4
  0
VERTEX
  5
12D
330
3C
100
AcDbEntity
  8
BASE
100
AcDbFaceRecord
 10
0.0
 20
0.0
 30
0.0
 70
   128
 71
     5
 72
     6
 73
     7
 74
     8
  0
VERTEX
  5
12E
330
3C
100
AcDbEntity
  8
BASE
100
AcDbFaceRecord
 10
0.0
 20
0.0
 30
0.0
 70
   128
 71
     9
 72
    10
 73
    11
 74
    12
  0
VERTEX
  5
12F
330
3C
100
AcDbEntity
  8
BASE
100
AcDbFaceRecord
 10
0.0
 20
0.0
 30
0.0
 70
   128
 71
    13
 72
    14
 73
    15
 74
    16
  0
VERTEX
  5
130
330
3C
100
AcDbEntity
  8
BASE
100
AcDbFaceRecord
 10
0.0
 20
0.0
 30
0.0
 70
   128
 71
    17
 72
    18
 73
    19
 74
    20
  0
VERTEX
  5
131
330
3C
100
AcDbEntity
  8
BASE
100
AcDbFaceRecord
 10
0.0
 20
0.0
 30
0.0
 70
   128
 71
    21
 72
    22
 73
    23
 74
    24
  0
VERTEX
  5
132
330
3C
100
AcDbEntity
  8
BASE
100
AcDbFaceRecord
 10
0.0
 20
0.0
 30
0.0
 70
   128
 71
    25
 72
    26
 73
    27
 74
    27
  0
VERTEX
  5
133
330
3C
100
AcDbEntity
  8
BASE
100
AcDbFaceRecord
 10
0.0
 20
0.0
 30
0.0
 70
   128
 71
    28
 72
    29
 73
    30
 74
    31
  0
VERTEX
  5
134
330
3C
100
AcDbEntity
  8
BASE
100
AcDbFaceRecord
 10
0.0
 20
0.0
 30
0.0
 70
   128
 71
    32
 72
    33
 73
    34
 74
    35
  0
VERTEX
  5
135
330
3C
100
AcDbEntity
  8
BASE
100
AcDbFaceRecord
 10
0.0
 20
0.0
 30
0.0
 70
   128
 71
    36
 72
    37
 73
    38
 74
    39
  0
VERTEX
  5
136
330
3C
100
AcDbEntity
  8
BASE
100
AcDbFaceRecord
 10
0.0
 20
0.0
 30
0.0
 70
   128
 71
    40
 72
    41
 73
    42
 74
    43
  0
VERTEX
  5
137
330
3C
100
AcDbEntity
  8
BASE
100
AcDbFaceRecord
 10
0.0
 20
0.0
 30
0.0
 70
   128
 71
    44
 72
    45
 73
    46
 74
    47
  0
VERTEX
  5
138
330
3C
100
AcDbEntity
  8
BASE
100
AcDbFaceRecord
 10
0.0
 20
0.0
 30
0.0
 70
   128
 71
    48
 72
    49
 73
    50
 74
    51
  0
VERTEX
  5
139
330
3C
100
AcDbEntity
  8
BASE
100
AcDbFaceRecord
 10
0.0
 20
0.0
 30
0.0
 70
   128
 71
    52
 72
    53
 73
    54
 74
    55
  0
VERTEX
  5
13A
330
3C
100
AcDbEntity
  8
BASE
100
AcDbFaceRecord
 10
0.0
 20
0.0
 30
0.0
 70
   128
 71
    56
 72
    57
 73
    58
 74
    59
  0
VERTEX
  5
13B
330
3C
100
AcDbEntity
  8
BASE
100
AcDbFaceRecord
 10
0.0
 20
0.0
 30
0.0
 70
   128
 71
    60
 72
    61
 73
    62
 74
    63
  0
VERTEX
  5
13C
330
3C
100
AcDbEntity
  8
BASE
100
AcDbFaceRecord
 10
0.0
 20
0.0
 30
0.0
 70
   128
 71
    64
 72
    65
 73
    66
 74
    67
  0
VERTEX
  5
13D
330
3C
100
AcDbEntity
  8
BASE
100
AcDbFaceRecord
 10
0.0
 20
0.0
 30
0.0
 70
   128
 71
    68
 72
    69
 73
    70
 74
    71
  0
VERTEX
  5
13E
330
3C
100
AcDbEntity
  8
BASE
100
AcDbFaceRecord
 10
0.0
 20
0.0
 30
0.0
 70
   128
 71
    72
 72
    73
 73
    74
 74
    75
  0
VERTEX
  5
13F
330
3C
100
AcDbEntity
  8
BASE
100
AcDbFaceRecord
 10
0.0
 20
0.0
 30
0.0
 70
   128
 71
    76
 72
    77
 73
    78
 74
    79
  0
VERTEX
  5
140
330
3C
100
AcDbEntity
  8
BASE
100
AcDbFaceRecord
 10
0.0
 20
0.0
 30
0.0
 70
   128
 71
    80
 72
    81
 73
    82
 74
    83
  0
VERTEX
  5
141
330
3C
100
AcDbEntity
  8
BASE
100
AcDbFaceRecord
 10
0.0
 20
0.0
 30
0.0
 70
   128
 71
    84
 72
    85
 73
    86
 74
    87
  0
VERTEX
  5
142
330
3C
100
AcDbEntity
  8
BASE
100
AcDbFaceRecord
 10
0.0
 20
0.0
 30
0.0
 70
   128
 71
    88
 72
    89
 73
    90
 74
    91
  0
VERTEX
  5
143
330
3C
100
AcDbEntity
  8
BASE
100
AcDbFaceRecord
 10
0.0
 20
0.0
 30
0.0
 70
   128
 71
    92
 72
    93
 73
    94
 74
    95
  0
VERTEX
  5
144
330
3C
100
AcDbEntity
  8
BASE
100
AcDbFaceRecord
 10
0.0
 20
0.0
 30
0.0
 70
   128
 71
    96
 72
    97
 73
    98
 74
    99
  0
VERTEX
  5
145
330
3C
100
AcDbEntity
  8
BASE
100
AcDbFaceRecord
 10
0.0
 20
0.0
 30
0.0
 70
   128
 71
   100
 72
   101
 73
   102
 74
   103
  0
VERTEX
  5
146
330
3C
100
AcDbEntity
  8
BASE
100
AcDbFaceRecord
 10
0.0
 20
0.0
 30
0.0
 70
   128
 71
   104
 72
   105
 73
   106
 74
   107
  0
VERTEX
  5
147
330
3C
100
AcDbEntity
  8
BASE
100
AcDbFaceRecord
 10
0.0
 20
0.0
 30
0.0
 70
   128
 71
   108
 72
   109
 73
   110
 74
   111
  0
VERTEX
  5
148
330
3C
100
AcDbEntity
  8
BASE
100
AcDbFaceRecord
 10
0.0
 20
0.0
 30
0.0
 70
   128
 71
   112
 72
   113
 73
   114
 74
   115
  0
VERTEX
  5
149
330
3C
100
AcDbEntity
  8
BASE
100
AcDbFaceRecord
 10
0.0
 20
0.0
 30
0.0
 70
   128
 71
   116
 72
   117
 73
   118
 74
   119
  0
VERTEX
  5
14A
330
3C
100
AcDbEntity
  8
BASE
100
AcDbFaceRecord
 10
0.0
 20
0.0
 30
0.0
 70
   128
 71
   120
 72
   121
 73
   122
 74
   123
  0
VERTEX
  5
14B
330
3C
100
AcDbEntity
  8
BASE
100
AcDbFaceRecord
 10
0.0
 20
0.0
 30
0.0
 70
   128
 71
   124
 72
   125
 73
   126
 74
   127
  0
VERTEX
  5
14C
330
3C
100
AcDbEntity
  8
BASE
100
AcDbFaceRecord
 10
0.0
 20
0.0
 30
0.0
 70
   128
 71
   128
 72
   129
 73
   130
 74
   131
  0
VERTEX
  5
14D
330
3C
100
AcDbEntity
  8
BASE
100
AcDbFaceRecord
 10
0.0
 20
0.0
 30
0.0
 70
   128
 71
   132
 72
   133
 73
   134
 74
   135
  0
VERTEX
  5
14E
330
3C
100
AcDbEntity
  8
BASE
100
AcDbFaceRecord
 10
0.0
 20
0.0
 30
0.0
 70
   128
 71
   136
 72
   137
 73
   138
 74
   139
  0
VERTEX
  5
14F
330
3C
100
AcDbEntity
  8
BASE
100
AcDbFaceRecord
 10
0.0
 20
0.0
 30
0.0
 70
   128
 71
   140
 72
   141
 73
   142
 74
   143
  0
VERTEX
  5
150
330
3C
100
AcDbEntity
  8
BASE
100
AcDbFaceRecord
 10
0.0
 20
0.0
 30
0.0
 70
   128
 71
   144
 72
   145
 73
   146
 74
   147
  0
VERTEX
  5
151
330
3C
100
AcDbEntity
  8
BASE
100
AcDbFaceRecord
 10
0.0
 20
0.0
 30
0.0
 70
   128
 71
   148
 72
   149
 73
   150
 74
   151
  0
VERTEX
  5
152
330
3C
100
AcDbEntity
  8
BASE
100
AcDbFaceRecord
 10
0.0
 20
0.0
 30
0.0
 70
   128
 71
   152
 72
   153
 73
   154
 74
   155
  0
VERTEX
  5
153
330
3C
100
AcDbEntity
  8
BASE
100
AcDbFaceRecord
 10
0.0
 20
0.0
 30
0.0
 70
   128
 71
   156
 72
   157
 73
   158
 74
   159
  0
VERTEX
  5
154
330
3C
100
AcDbEntity
  8
BASE
100
AcDbFaceRecord
 10
0.0
 20
0.0
 30
0.0
 70
   128
 71
   160
 72
   161
 73
   162
 74
   163
  0
VERTEX
  5
155
330
3C
100
AcDbEntity
  8
BASE
100
AcDbFaceRecord
 10
0.0
 20
0.0
 30
0.0
 70
   128
 71
   164
 72
   165
 73
   166
 74
   167
  0
VERTEX
  5
156
330
3C
100
AcDbEntity
  8
BASE
100
AcDbFaceRecord
 10
0.0
 20
0.0
 30
0.0
 70
   128
 71
   168
 72
   169
 73
   170
 74
   171
  0
VERTEX
  5
157
330
3C
100
AcDbEntity
  8
BASE
100
AcDbFaceRecord
 10
0.0
 20
0.0
 30
0.0
 70
   128
 71
   172
 72
   173
 73
   174
 74
   175
  0
VERTEX
  5
158
330
3C
100
AcDbEntity
  8
BASE
100
AcDbFaceRecord
 10
0.0
 20
0.0
 30
0.0
 70
   128
 71
   176
 72
   177
 73
   178
 74
   179
  0
VERTEX
  5
159
330
3C
100
AcDbEntity
  8
BASE
100
AcDbFaceRecord
 10
0.0
 20
0.0
 30
0.0
 70
   128
 71
   180
 72
   181
 73
   182
 74
   183
  0
VERTEX
  5
15A
330
3C
100
AcDbEntity
  8
BASE
100
AcDbFaceRecord
 10
0.0
 20
0.0
 30
0.0
 70
   128
 71
   184
 72
   185
 73
   186
 74
   187
  0
VERTEX
  5
15B
330
3C
100
AcDbEntity
  8
BASE
100
AcDbFaceRecord
 10
0.0
 20
0.0
 30
0.0
 70
   128
 71
   188
 72
   189
 73
   190
 74
   191
  0
VERTEX
  5
15C
330
3C
100
AcDbEntity
  8
BASE
100
AcDbFaceRecord
 10
0.0
 20
0.0
 30
0.0
 70
   128
 71
   192
 72
   193
 73
   194
 74
   195
  0
VERTEX
  5
15D
330
3C
100
AcDbEntity
  8
BASE
100
AcDbFaceRecord
 10
0.0
 20
0.0
 30
0.0
 70
   128
 71
   196
 72
   197
 73
   198
 74
   199
  0
VERTEX
  5
15E
330
3C
100
AcDbEntity
  8
BASE
100
AcDbFaceRecord
 10
0.0
 20
0.0
 30
0.0
 70
   128
 71
   200
 72
   201
 73
   202
 74
   203
  0
VERTEX
  5
15F
330
3C
100
AcDbEntity
  8
BASE
100
AcDbFaceRecord
 10
0.0
 20
0.0
 30
0.0
 70
   128
 71
   204
 72
   205
 73
   206
 74
   207
  0
VERTEX
  5
160
330
3C
100
AcDbEntity
  8
BASE
100
AcDbFaceRecord
 10
0.0
 20
0.0
 30
0.0
 70
   128
 71
   208
 72
   209
 73
   210
 74
   211
  0
VERTEX
  5
161
330
3C
100
AcDbEntity
  8
BASE
100
AcDbFaceRecord
 10
0.0
 20
0.0
 30
0.0
 70
   128
 71
   212
 72
   213
 73
   214
 74
   215
  0
VERTEX
  5
162
330
3C
100
AcDbEntity
  8
BASE
100
AcDbFaceRecord
 10
0.0
 20
0.0
 30
0.0
 70
   128
 71
   216
 72
   217
 73
   218
 74
   219
  0
VERTEX
  5
163
330
3C
100
AcDbEntity
  8
BASE
100
AcDbFaceRecord
 10
0.0
 20
0.0
 30
0.0
 70
   128
 71
   220
 72
   221
 73
   222
 74
   223
  0
VERTEX
  5
164
330
3C
100
AcDbEntity
  8
BASE
100
AcDbFaceRecord
 10
0.0
 20
0.0
 30
0.0
 70
   128
 71
   224
 72
   225
 73
   226
 74
   227
  0
VERTEX
  5
165
330
3C
100
AcDbEntity
  8
BASE
100
AcDbFaceRecord
 10
0.0
 20
0.0
 30
0.0
 70
   128
 71
   228
 72
   229
 73
   230
 74
   231
  0
VERTEX
  5
166
330
3C
100
AcDbEntity
  8
BASE
100
AcDbFaceRecord
 10
0.0
 20
0.0
 30
0.0
 70
   128
 71
   232
 72
   233
 73
   234
 74
   235
  0
VERTEX
  5
167
330
3C
100
AcDbEntity
  8
BASE
100
AcDbFaceRecord
 10
0.0
 20
0.0
 30
0.0
 70
   128
 71
   236
 72
   237
 73
   238
 74
   239
  0
SEQEND
  5
168
330
3C
100
AcDbEntity
  8
BASE
  0
POLYLINE
  5
169
330
1F
100
AcDbEntity
  8
BASE
100
AcDbPolyFaceMesh
 66
     1
 10
0.0
 20
0.0
 30
0.0
 70
    64
 71
    10
 72
     4
  0
VERTEX
  5
16A
330
169
100
AcDbEntity
  8
BASE
100
AcDbVertex
100
AcDbPolyFaceMeshVertex
 10
12.61249160766602
 20
-8.21198844909668
 30
15.12372016906738
 70
   192
  0
VERTEX
  5
16B
330
169
100
AcDbEntity
  8
BASE
100
AcDbVertex
100
AcDbPolyFaceMeshVertex
 10
12.83331298828125
 20
-8.195771217346191
 30
15.28795528411865
 70
   192
  0
VERTEX
  5
16C
330
169
100
AcDbEntity
  8
BASE
100
AcDbVertex
100
AcDbPolyFaceMeshVertex
 10
13.03540515899658
 20
-8.364986419677734
 30
15.35624694824219
 70
   192
  0
VERTEX
  5
16D
330
169
100
AcDbEntity
  8
BASE
100
AcDbVertex
100
AcDbPolyFaceMeshVertex
 10
13.09523677825928
 20
-8.62082290649414
 30
15.28479194641113
 70
   192
  0
VERTEX
  5
16E
330
169
100
AcDbEntity
  8
BASE
100
AcDbVertex
100
AcDbPolyFaceMeshVertex
 10
12.98038291931152
 20
-8.809003829956055
 30
15.11927890777588
 70
   192
  0
VERTEX
  5
16F
330
169
100
AcDbEntity
  8
BASE
100
AcDbVertex
100
AcDbPolyFaceMeshVertex
 10
21.84537696838379
 20
-2.425923347473145
 30
0.0057547707110643
 70
   192
  0
VERTEX
  5
170
330
169
100
AcDbEntity
  8
BASE
100
AcDbVertex
100
AcDbPolyFaceMeshVertex
 10
22.11773872375488
 20
-2.375836372375488
 30
0.008017223328352
 70
   192
  0
VERTEX
  5
171
330
169
100
AcDbEntity
  8
BASE
100
AcDbVertex
100
AcDbPolyFaceMeshVertex
 10
22.33897972106934
 20
-2.534608364105225
 30
0.0089239841327071
 70
   192
  0
VERTEX
  5
172
330
169
100
AcDbEntity
  8
BASE
100
AcDbVertex
100
AcDbPolyFaceMeshVertex
 10
22.38009834289551
 20
-2.803799867630005
 30
0.0079737547785044
 70
   192
  0
VERTEX
  5
173
330
169
100
AcDbEntity
  8
BASE
100
AcDbVertex
100
AcDbPolyFaceMeshVertex
 10
22.21189880371094
 20
-3.023797035217285
 30
0.0056940438225865
 70
   192
  0
VERTEX
  5
174
330
169
100
AcDbEntity
  8
BASE
100
AcDbFaceRecord
 10
0.0
 20
0.0
 30
0.0
 70
   128
 71
     1
 72
     2
 73
     7
 74
     6
  0
VERTEX
  5
175
330
169
100
AcDbEntity
  8
BASE
100
AcDbFaceRecord
 10
0.0
 20
0.0
 30
0.0
 70
   128
 71
     2
 72
     3
 73
     8
 74
     7
  0
VERTEX
  5
176
330
169
100
AcDbEntity
  8
BASE
100
AcDbFaceRecord
 10
0.0
 20
0.0
 30
0.0
 70
   128
 71
     3
 72
     4
 73
     9
 74
     8
  0
VERTEX
  5
177
330
169
100
AcDbEntity
  8
BASE
100
AcDbFaceRecord
 10
0.0
 20
0.0
 30
0.0
 70
   128
 71
     4
 72
     5
 73
    10
 74
     9
  0
SEQEND
  5
178
330
169
100
AcDbEntity
  8
BASE
  0
POLYLINE
  5
179
330
1F
100
AcDbEntity
  8
BASE
100
AcDbPolyFaceMesh
 66
     1
 10
0.0
 20
0.0
 30
0.0
 70
    64
 71
    30
 72
    20
  0
VERTEX
  5
17A
330
179
100
AcDbEntity
  8
BASE
100
AcDbVertex
100
AcDbPolyFaceMeshVertex
 10
11.79146385192871
 20
-8.726510047912598
 30
17.86628913879395
 70
   192
  0
VERTEX
  5
17B
330
179
100
AcDbEntity
  8
BASE
100
AcDbVertex
100
AcDbPolyFaceMeshVertex
 10
11.86293315887451
 20
-8.681720733642578
 30
17.2850399017334
 70
   192
  0
VERTEX
  5
17C
330
179
100
AcDbEntity
  8
BASE
100
AcDbVertex
100
AcDbPolyFaceMeshVertex
 10
11.9821310043335
 20
-8.607022285461426
 30
16.71479988098145
 70
   192
  0
VERTEX
  5
17D
330
179
100
AcDbEntity
  8
BASE
100
AcDbVertex
100
AcDbPolyFaceMeshVertex
 10
12.14791584014893
 20
-8.503128051757812
 30
16.16100883483887
 70
   192
  0
VERTEX
  5
17E
330
179
100
AcDbEntity
  8
BASE
100
AcDbVertex
100
AcDbPolyFaceMeshVertex
 10
12.35870742797852
 20
-8.3710298538208
 30
15.62895584106445
 70
   192
  0
VERTEX
  5
17F
330
179
100
AcDbEntity
  8
BASE
100
AcDbVertex
100
AcDbPolyFaceMeshVertex
 10
12.61249160766602
 20
-8.21198844909668
 30
15.12372016906738
 70
   192
  0
VERTEX
  5
180
330
179
100
AcDbEntity
  8
BASE
100
AcDbVertex
100
AcDbPolyFaceMeshVertex
 10
12.06383419036865
 20
-8.676417350769043
 30
17.86628913879395
 70
   192
  0
VERTEX
  5
181
330
179
100
AcDbEntity
  8
BASE
100
AcDbVertex
100
AcDbPolyFaceMeshVertex
 10
12.12499237060547
 20
-8.638404846191406
 30
17.31788444519043
 70
   192
  0
VERTEX
  5
182
330
179
100
AcDbEntity
  8
BASE
100
AcDbVertex
100
AcDbPolyFaceMeshVertex
 10
12.23387813568115
 20
-8.57048225402832
 30
16.78048896789551
 70
   192
  0
VERTEX
  5
183
330
179
100
AcDbEntity
  8
BASE
100
AcDbVertex
100
AcDbPolyFaceMeshVertex
 10
12.38935375213623
 20
-8.473362922668457
 30
16.25954818725586
 70
   192
  0
VERTEX
  5
184
330
179
100
AcDbEntity
  8
BASE
100
AcDbVertex
100
AcDbPolyFaceMeshVertex
 10
12.58983612060547
 20
-8.348039627075195
 30
15.76034355163574
 70
   192
  0
VERTEX
  5
185
330
179
100
AcDbEntity
  8
BASE
100
AcDbVertex
100
AcDbPolyFaceMeshVertex
 10
12.83331298828125
 20
-8.195771217346191
 30
15.28795528411865
 70
   192
  0
VERTEX
  5
186
330
179
100
AcDbEntity
  8
BASE
100
AcDbVertex
100
AcDbPolyFaceMeshVertex
 10
12.28507709503174
 20
-8.835186958312988
 30
17.86628913879395
 70
   192
  0
VERTEX
  5
187
330
179
100
AcDbEntity
  8
BASE
100
AcDbVertex
100
AcDbPolyFaceMeshVertex
 10
12.34240341186523
 20
-8.799264907836914
 30
17.33153915405273
 70
   192
  0
VERTEX
  5
188
330
179
100
AcDbEntity
  8
BASE
100
AcDbVertex
100
AcDbPolyFaceMeshVertex
 10
12.4474573135376
 20
-8.73343276977539
 30
16.80780410766602
 70
   192
  0
VERTEX
  5
189
330
179
100
AcDbEntity
  8
BASE
100
AcDbVertex
100
AcDbPolyFaceMeshVertex
 10
12.59910106658936
 20
-8.638402938842773
 30
16.30052375793457
 70
   192
  0
VERTEX
  5
18A
330
179
100
AcDbEntity
  8
BASE
100
AcDbVertex
100
AcDbPolyFaceMeshVertex
 10
12.79575347900391
 20
-8.515167236328125
 30
15.81497669219971
 70
   192
  0
VERTEX
  5
18B
330
179
100
AcDbEntity
  8
BASE
100
AcDbVertex
100
AcDbPolyFaceMeshVertex
 10
13.03540515899658
 20
-8.364986419677734
 30
15.35624694824219
 70
   192
  0
VERTEX
  5
18C
330
179
100
AcDbEntity
  8
BASE
100
AcDbVertex
100
AcDbPolyFaceMeshVertex
 10
12.32619571685791
 20
-9.10438060760498
 30
17.86628913879395
 70
   192
  0
VERTEX
  5
18D
330
179
100
AcDbEntity
  8
BASE
100
AcDbVertex
100
AcDbPolyFaceMeshVertex
 10
12.38726139068604
 20
-9.065789222717285
 30
17.31724548339844
 70
   192
  0
VERTEX
  5
18E
330
179
100
AcDbEntity
  8
BASE
100
AcDbVertex
100
AcDbPolyFaceMeshVertex
 10
12.49605655670166
 20
-8.997286796569824
 30
16.77921867370605
 70
   192
  0
VERTEX
  5
18F
330
179
100
AcDbEntity
  8
BASE
100
AcDbVertex
100
AcDbPolyFaceMeshVertex
 10
12.65144348144531
 20
-8.899584770202637
 30
16.25764846801758
 70
   192
  0
VERTEX
  5
190
330
179
100
AcDbEntity
  8
BASE
100
AcDbVertex
100
AcDbPolyFaceMeshVertex
 10
12.85184001922607
 20
-8.773677825927734
 30
15.75781440734863
 70
   192
  0
VERTEX
  5
191
330
179
100
AcDbEntity
  8
BASE
100
AcDbVertex
100
AcDbPolyFaceMeshVertex
 10
13.09523677825928
 20
-8.62082290649414
 30
15.28479194641113
 70
   192
  0
VERTEX
  5
192
330
179
100
AcDbEntity
  8
BASE
100
AcDbVertex
100
AcDbPolyFaceMeshVertex
 10
12.15798568725586
 20
-9.324382781982422
 30
17.86628913879395
 70
   192
  0
VERTEX
  5
193
330
179
100
AcDbEntity
  8
BASE
100
AcDbVertex
100
AcDbPolyFaceMeshVertex
 10
12.22972011566162
 20
-9.27942943572998
 30
17.28413772583008
 70
   192
  0
VERTEX
  5
194
330
179
100
AcDbEntity
  8
BASE
100
AcDbVertex
100
AcDbPolyFaceMeshVertex
 10
12.34918594360352
 20
-9.204562187194824
 30
16.71300888061523
 70
   192
  0
VERTEX
  5
195
330
179
100
AcDbEntity
  8
BASE
100
AcDbVertex
100
AcDbPolyFaceMeshVertex
 10
12.51524257659912
 20
-9.10049819946289
 30
16.15833854675293
 70
   192
  0
VERTEX
  5
196
330
179
100
AcDbEntity
  8
BASE
100
AcDbVertex
100
AcDbPolyFaceMeshVertex
 10
12.72631072998047
 20
-8.968225479125977
 30
15.62540435791016
 70
   192
  0
VERTEX
  5
197
330
179
100
AcDbEntity
  8
BASE
100
AcDbVertex
100
AcDbPolyFaceMeshVertex
 10
12.98038291931152
 20
-8.809003829956055
 30
15.11927890777588
 70
   192
  0
VERTEX
  5
198
330
179
100
AcDbEntity
  8
BASE
100
AcDbFaceRecord
 10
0.0
 20
0.0
 30
0.0
 70
   128
 71
     1
 72
     2
 73
     8
 74
     7
  0
VERTEX
  5
199
330
179
100
AcDbEntity
  8
BASE
100
AcDbFaceRecord
 10
0.0
 20
0.0
 30
0.0
 70
   128
 71
     2
 72
     3
 73
     9
 74
     8
  0
VERTEX
  5
19A
330
179
100
AcDbEntity
  8
BASE
100
AcDbFaceRecord
 10
0.0
 20
0.0
 30
0.0
 70
   128
 71
     3
 72
     4
 73
    10
 74
     9
  0
VERTEX
  5
19B
330
179
100
AcDbEntity
  8
BASE
100
AcDbFaceRecord
 10
0.0
 20
0.0
 30
0.0
 70
   128
 71
     4
 72
     5
 73
    11
 74
    10
  0
VERTEX
  5
19C
330
179
100
AcDbEntity
  8
BASE
100
AcDbFaceRecord
 10
0.0
 20
0.0
 30
0.0
 70
   128
 71
     5
 72
     6
 73
    12
 74
    11
  0
VERTEX
  5
19D
330
179
100
AcDbEntity
  8
BASE
100
AcDbFaceRecord
 10
0.0
 20
0.0
 30
0.0
 70
   128
 71
     7
 72
     8
 73
    14
 74
    13
  0
VERTEX
  5
19E
330
179
100
AcDbEntity
  8
BASE
100
AcDbFaceRecord
 10
0.0
 20
0.0
 30
0.0
 70
   128
 71
     8
 72
     9
 73
    15
 74
    14
  0
VERTEX
  5
19F
330
179
100
AcDbEntity
  8
BASE
100
AcDbFaceRecord
 10
0.0
 20
0.0
 30
0.0
 70
   128
 71
     9
 72
    10
 73
    16
 74
    15
  0
VERTEX
  5
1A0
330
179
100
AcDbEntity
  8
BASE
100
AcDbFaceRecord
 10
0.0
 20
0.0
 30
0.0
 70
   128
 71
    10
 72
    11
 73
    17
 74
    16
  0
VERTEX
  5
1A1
330
179
100
AcDbEntity
  8
BASE
100
AcDbFaceRecord
 10
0.0
 20
0.0
 30
0.0
 70
   128
 71
    11
 72
    12
 73
    18
 74
    17
  0
VERTEX
  5
1A2
330
179
100
AcDbEntity
  8
BASE
100
AcDbFaceRecord
 10
0.0
 20
0.0
 30
0.0
 70
   128
 71
    13
 72
    14
 73
    20
 74
    19
  0
VERTEX
  5
1A3
330
179
100
AcDbEntity
  8
BASE
100
AcDbFaceRecord
 10
0.0
 20
0.0
 30
0.0
 70
   128
 71
    14
 72
    15
 73
    21
 74
    20
  0
VERTEX
  5
1A4
330
179
100
AcDbEntity
  8
BASE
100
AcDbFaceRecord
 10
0.0
 20
0.0
 30
0.0
 70
   128
 71
    15
 72
    16
 73
    22
 74
    21
  0
VERTEX
  5
1A5
330
179
100
AcDbEntity
  8
BASE
100
AcDbFaceRecord
 10
0.0
 20
0.0
 30
0.0
 70
   128
 71
    16
 72
    17
 73
    23
 74
    22
  0
VERTEX
  5
1A6
330
179
100
AcDbEntity
  8
BASE
100
AcDbFaceRecord
 10
0.0
 20
0.0
 30
0.0
 70
   128
 71
    17
 72
    18
 73
    24
 74
    23
  0
VERTEX
  5
1A7
330
179
100
AcDbEntity
  8
BASE
100
AcDbFaceRecord
 10
0.0
 20
0.0
 30
0.0
 70
   128
 71
    19
 72
    20
 73
    26
 74
    25
  0
VERTEX
  5
1A8
330
179
100
AcDbEntity
  8
BASE
100
AcDbFaceRecord
 10
0.0
 20
0.0
 30
0.0
 70
   128
 71
    20
 72
    21
 73
    27
 74
    26
  0
VERTEX
  5
1A9
330
179
100
AcDbEntity
  8
BASE
100
AcDbFaceRecord
 10
0.0
 20
0.0
 30
0.0
 70
   128
 71
    21
 72
    22
 73
    28
 74
    27
  0
VERTEX
  5
1AA
330
179
100
AcDbEntity
  8
BASE
100
AcDbFaceRecord
 10
0.0
 20
0.0
 30
0.0
 70
   128
 71
    22
 72
    23
 73
    29
 74
    28
  0
VERTEX
  5
1AB
330
179
100
AcDbEntity
  8
BASE
100
AcDbFaceRecord
 10
0.0
 20
0.0
 30
0.0
 70
   128
 71
    23
 72
    24
 73
    30
 74
    29
  0
SEQEND
  5
1AC
330
179
100
AcDbEntity
  8
BASE
  0
POLYLINE
  5
1AD
330
1F
100
AcDbEntity
  8
BASE
100
AcDbPolyFaceMesh
 66
     1
 10
0.0
 20
0.0
 30
0.0
 70
    64
 71
    10
 72
     4
  0
VERTEX
  5
1AE
330
1AD
100
AcDbEntity
  8
BASE
100
AcDbVertex
100
AcDbPolyFaceMeshVertex
 10
9.767610549926758
 20
-8.21198844909668
 30
15.12372016906738
 70
   192
  0
VERTEX
  5
1AF
330
1AD
100
AcDbEntity
  8
BASE
100
AcDbVertex
100
AcDbPolyFaceMeshVertex
 10
9.54678726196289
 20
-8.195771217346191
 30
15.28795528411865
 70
   192
  0
VERTEX
  5
1B0
330
1AD
100
AcDbEntity
  8
BASE
100
AcDbVertex
100
AcDbPolyFaceMeshVertex
 10
9.344696044921875
 20
-8.364986419677734
 30
15.35624694824219
 70
   192
  0
VERTEX
  5
1B1
330
1AD
100
AcDbEntity
  8
BASE
100
AcDbVertex
100
AcDbPolyFaceMeshVertex
 10
9.284863471984863
 20
-8.62082290649414
 30
15.28479194641113
 70
   192
  0
VERTEX
  5
1B2
330
1AD
100
AcDbEntity
  8
BASE
100
AcDbVertex
100
AcDbPolyFaceMeshVertex
 10
9.39971923828125
 20
-8.809003829956055
 30
15.11927890777588
 70
   192
  0
VERTEX
  5
1B3
330
1AD
100
AcDbEntity
  8
BASE
100
AcDbVertex
100
AcDbPolyFaceMeshVertex
 10
0.5347233414649963
 20
-2.425923347473145
 30
0.0057547707110643
 70
   192
  0
VERTEX
  5
1B4
330
1AD
100
AcDbEntity
  8
BASE
100
AcDbVertex
100
AcDbPolyFaceMeshVertex
 10
0.262360155582428
 20
-2.375836372375488
 30
0.008017223328352
 70
   192
  0
VERTEX
  5
1B5
330
1AD
100
AcDbEntity
  8
BASE
100
AcDbVertex
100
AcDbPolyFaceMeshVertex
 10
0.0411213859915733
 20
-2.534608364105225
 30
0.0089239841327071
 70
   192
  0
VERTEX
  5
1B6
330
1AD
100
AcDbEntity
  8
BASE
100
AcDbVertex
100
AcDbPolyFaceMeshVertex
 10
0.0
 20
-2.803799867630005
 30
0.0079737547785044
 70
   192
  0
VERTEX
  5
1B7
330
1AD
100
AcDbEntity
  8
BASE
100
AcDbVertex
100
AcDbPolyFaceMeshVertex
 10
0.1682008653879166
 20
-3.023797035217285
 30
0.0056940438225865
 70
   192
  0
VERTEX
  5
1B8
330
1AD
100
AcDbEntity
  8
BASE
100
AcDbFaceRecord
 10
0.0
 20
0.0
 30
0.0
 70
   128
 71
     1
 72
     2
 73
     7
 74
     6
  0
VERTEX
  5
1B9
330
1AD
100
AcDbEntity
  8
BASE
100
AcDbFaceRecord
 10
0.0
 20
0.0
 30
0.0
 70
   128
 71
     2
 72
     3
 73
     8
 74
     7
  0
VERTEX
  5
1BA
330
1AD
100
AcDbEntity
  8
BASE
100
AcDbFaceRecord
 10
0.0
 20
0.0
 30
0.0
 70
   128
 71
     3
 72
     4
 73
     9
 74
     8
  0
VERTEX
  5
1BB
330
1AD
100
AcDbEntity
  8
BASE
100
AcDbFaceRecord
 10
0.0
 20
0.0
 30
0.0
 70
   128
 71
     4
 72
     5
 73
    10
 74
     9
  0
SEQEND
  5
1BC
330
1AD
100
AcDbEntity
  8
BASE
  0
POLYLINE
  5
1BD
330
1F
100
AcDbEntity
  8
BASE
100
AcDbPolyFaceMesh
 66
     1
 10
0.0
 20
0.0
 30
0.0
 70
    64
 71
    30
 72
    20
  0
VERTEX
  5
1BE
330
1BD
100
AcDbEntity
  8
BASE
100
AcDbVertex
100
AcDbPolyFaceMeshVertex
 10
10.58863735198975
 20
-8.726510047912598
 30
17.86628913879395
 70
   192
  0
VERTEX
  5
1BF
330
1BD
100
AcDbEntity
  8
BASE
100
AcDbVertex
100
AcDbPolyFaceMeshVertex
 10
10.51716709136963
 20
-8.681720733642578
 30
17.2850399017334
 70
   192
  0
VERTEX
  5
1C0
330
1BD
100
AcDbEntity
  8
BASE
100
AcDbVertex
100
AcDbPolyFaceMeshVertex
 10
10.39796924591064
 20
-8.607022285461426
 30
16.71479988098145
 70
   192
  0
VERTEX
  5
1C1
330
1BD
100
AcDbEntity
  8
BASE
100
AcDbVertex
100
AcDbPolyFaceMeshVertex
 10
10.23218536376953
 20
-8.503128051757812
 30
16.16100883483887
 70
   192
  0
VERTEX
  5
1C2
330
1BD
100
AcDbEntity
  8
BASE
100
AcDbVertex
100
AcDbPolyFaceMeshVertex
 10
10.02139472961426
 20
-8.3710298538208
 30
15.62895584106445
 70
   192
  0
VERTEX
  5
1C3
330
1BD
100
AcDbEntity
  8
BASE
100
AcDbVertex
100
AcDbPolyFaceMeshVertex
 10
9.767610549926758
 20
-8.21198844909668
 30
15.12372016906738
 70
   192
  0
VERTEX
  5
1C4
330
1BD
100
AcDbEntity
  8
BASE
100
AcDbVertex
100
AcDbPolyFaceMeshVertex
 10
10.3162670135498
 20
-8.676417350769043
 30
17.86628913879395
 70
   192
  0
VERTEX
  5
1C5
330
1BD
100
AcDbEntity
  8
BASE
100
AcDbVertex
100
AcDbPolyFaceMeshVertex
 10
10.25510787963867
 20
-8.638404846191406
 30
17.31788444519043
 70
   192
  0
VERTEX
  5
1C6
330
1BD
100
AcDbEntity
  8
BASE
100
AcDbVertex
100
AcDbPolyFaceMeshVertex
 10
10.14622211456299
 20
-8.57048225402832
 30
16.78048896789551
 70
   192
  0
VERTEX
  5
1C7
330
1BD
100
AcDbEntity
  8
BASE
100
AcDbVertex
100
AcDbPolyFaceMeshVertex
 10
9.99074649810791
 20
-8.473362922668457
 30
16.25954818725586
 70
   192
  0
VERTEX
  5
1C8
330
1BD
100
AcDbEntity
  8
BASE
100
AcDbVertex
100
AcDbPolyFaceMeshVertex
 10
9.790265083312988
 20
-8.348039627075195
 30
15.76034355163574
 70
   192
  0
VERTEX
  5
1C9
330
1BD
100
AcDbEntity
  8
BASE
100
AcDbVertex
100
AcDbPolyFaceMeshVertex
 10
9.54678726196289
 20
-8.195771217346191
 30
15.28795528411865
 70
   192
  0
VERTEX
  5
1CA
330
1BD
100
AcDbEntity
  8
BASE
100
AcDbVertex
100
AcDbPolyFaceMeshVertex
 10
10.09502410888672
 20
-8.835186958312988
 30
17.86628913879395
 70
   192
  0
VERTEX
  5
1CB
330
1BD
100
AcDbEntity
  8
BASE
100
AcDbVertex
100
AcDbPolyFaceMeshVertex
 10
10.03769779205322
 20
-8.799264907836914
 30
17.33153915405273
 70
   192
  0
VERTEX
  5
1CC
330
1BD
100
AcDbEntity
  8
BASE
100
AcDbVertex
100
AcDbPolyFaceMeshVertex
 10
9.93264389038086
 20
-8.73343276977539
 30
16.80780410766602
 70
   192
  0
VERTEX
  5
1CD
330
1BD
100
AcDbEntity
  8
BASE
100
AcDbVertex
100
AcDbPolyFaceMeshVertex
 10
9.780999183654785
 20
-8.638402938842773
 30
16.30052375793457
 70
   192
  0
VERTEX
  5
1CE
330
1BD
100
AcDbEntity
  8
BASE
100
AcDbVertex
100
AcDbPolyFaceMeshVertex
 10
9.58434772491455
 20
-8.515167236328125
 30
15.81497669219971
 70
   192
  0
VERTEX
  5
1CF
330
1BD
100
AcDbEntity
  8
BASE
100
AcDbVertex
100
AcDbPolyFaceMeshVertex
 10
9.344696044921875
 20
-8.364986419677734
 30
15.35624694824219
 70
   192
  0
VERTEX
  5
1D0
330
1BD
100
AcDbEntity
  8
BASE
100
AcDbVertex
100
AcDbPolyFaceMeshVertex
 10
10.05390644073486
 20
-9.10438060760498
 30
17.86628913879395
 70
   192
  0
VERTEX
  5
1D1
330
1BD
100
AcDbEntity
  8
BASE
100
AcDbVertex
100
AcDbPolyFaceMeshVertex
 10
9.992838859558105
 20
-9.065789222717285
 30
17.31724548339844
 70
   192
  0
VERTEX
  5
1D2
330
1BD
100
AcDbEntity
  8
BASE
100
AcDbVertex
100
AcDbPolyFaceMeshVertex
 10
9.884044647216797
 20
-8.997286796569824
 30
16.77921867370605
 70
   192
  0
VERTEX
  5
1D3
330
1BD
100
AcDbEntity
  8
BASE
100
AcDbVertex
100
AcDbPolyFaceMeshVertex
 10
9.728656768798828
 20
-8.899584770202637
 30
16.25764846801758
 70
   192
  0
VERTEX
  5
1D4
330
1BD
100
AcDbEntity
  8
BASE
100
AcDbVertex
100
AcDbPolyFaceMeshVertex
 10
9.528260231018066
 20
-8.773677825927734
 30
15.75781440734863
 70
   192
  0
VERTEX
  5
1D5
330
1BD
100
AcDbEntity
  8
BASE
100
AcDbVertex
100
AcDbPolyFaceMeshVertex
 10
9.284863471984863
 20
-8.62082290649414
 30
15.28479194641113
 70
   192
  0
VERTEX
  5
1D6
330
1BD
100
AcDbEntity
  8
BASE
100
AcDbVertex
100
AcDbPolyFaceMeshVertex
 10
10.2221155166626
 20
-9.324382781982422
 30
17.86628913879395
 70
   192
  0
VERTEX
  5
1D7
330
1BD
100
AcDbEntity
  8
BASE
100
AcDbVertex
100
AcDbPolyFaceMeshVertex
 10
10.15038108825684
 20
-9.27942943572998
 30
17.28413772583008
 70
   192
  0
VERTEX
  5
1D8
330
1BD
100
AcDbEntity
  8
BASE
100
AcDbVertex
100
AcDbPolyFaceMeshVertex
 10
10.03091621398926
 20
-9.204562187194824
 30
16.71300888061523
 70
   192
  0
VERTEX
  5
1D9
330
1BD
100
AcDbEntity
  8
BASE
100
AcDbVertex
100
AcDbPolyFaceMeshVertex
 10
9.864858627319336
 20
-9.10049819946289
 30
16.15833854675293
 70
   192
  0
VERTEX
  5
1DA
330
1BD
100
AcDbEntity
  8
BASE
100
AcDbVertex
100
AcDbPolyFaceMeshVertex
 10
9.653789520263672
 20
-8.968225479125977
 30
15.62540435791016
 70
   192
  0
VERTEX
  5
1DB
330
1BD
100
AcDbEntity
  8
BASE
100
AcDbVertex
100
AcDbPolyFaceMeshVertex
 10
9.39971923828125
 20
-8.809003829956055
 30
15.11927890777588
 70
   192
  0
VERTEX
  5
1DC
330
1BD
100
AcDbEntity
  8
BASE
100
AcDbFaceRecord
 10
0.0
 20
0.0
 30
0.0
 70
   128
 71
     1
 72
     2
 73
     8
 74
     7
  0
VERTEX
  5
1DD
330
1BD
100
AcDbEntity
  8
BASE
100
AcDbFaceRecord
 10
0.0
 20
0.0
 30
0.0
 70
   128
 71
     2
 72
     3
 73
     9
 74
     8
  0
VERTEX
  5
1DE
330
1BD
100
AcDbEntity
  8
BASE
100
AcDbFaceRecord
 10
0.0
 20
0.0
 30
0.0
 70
   128
 71
     3
 72
     4
 73
    10
 74
     9
  0
VERTEX
  5
1DF
330
1BD
100
AcDbEntity
  8
BASE
100
AcDbFaceRecord
 10
0.0
 20
0.0
 30
0.0
 70
   128
 71
     4
 72
     5
 73
    11
 74
    10
  0
VERTEX
  5
1E0
330
1BD
100
AcDbEntity
  8
BASE
100
AcDbFaceRecord
 10
0.0
 20
0.0
 30
0.0
 70
   128
 71
     5
 72
     6
 73
    12
 74
    11
  0
VERTEX
  5
1E1
330
1BD
100
AcDbEntity
  8
BASE
100
AcDbFaceRecord
 10
0.0
 20
0.0
 30
0.0
 70
   128
 71
     7
 72
     8
 73
    14
 74
    13
  0
VERTEX
  5
1E2
330
1BD
100
AcDbEntity
  8
BASE
100
AcDbFaceRecord
 10
0.0
 20
0.0
 30
0.0
 70
   128
 71
     8
 72
     9
 73
    15
 74
    14
  0
VERTEX
  5
1E3
330
1BD
100
AcDbEntity
  8
BASE
100
AcDbFaceRecord
 10
0.0
 20
0.0
 30
0.0
 70
   128
 71
     9
 72
    10
 73
    16
 74
    15
  0
VERTEX
  5
1E4
330
1BD
100
AcDbEntity
  8
BASE
100
AcDbFaceRecord
 10
0.0
 20
0.0
 30
0.0
 70
   128
 71
    10
 72
    11
 73
    17
 74
    16
  0
VERTEX
  5
1E5
330
1BD
100
AcDbEntity
  8
BASE
100
AcDbFaceRecord
 10
0.0
 20
0.0
 30
0.0
 70
   128
 71
    11
 72
    12
 73
    18
 74
    17
  0
VERTEX
  5
1E6
330
1BD
100
AcDbEntity
  8
BASE
100
AcDbFaceRecord
 10
0.0
 20
0.0
 30
0.0
 70
   128
 71
    13
 72
    14
 73
    20
 74
    19
  0
VERTEX
  5
1E7
330
1BD
100
AcDbEntity
  8
BASE
100
AcDbFaceRecord
 10
0.0
 20
0.0
 30
0.0
 70
   128
 71
    14
 72
    15
 73
    21
 74
    20
  0
VERTEX
  5
1E8
330
1BD
100
AcDbEntity
  8
BASE
100
AcDbFaceRecord
 10
0.0
 20
0.0
 30
0.0
 70
   128
 71
    15
 72
    16
 73
    22
 74
    21
  0
VERTEX
  5
1E9
330
1BD
100
AcDbEntity
  8
BASE
100
AcDbFaceRecord
 10
0.0
 20
0.0
 30
0.0
 70
   128
 71
    16
 72
    17
 73
    23
 74
    22
  0
VERTEX
  5
1EA
330
1BD
100
AcDbEntity
  8
BASE
100
AcDbFaceRecord
 10
0.0
 20
0.0
 30
0.0
 70
   128
 71
    17
 72
    18
 73
    24
 74
    23
  0
VERTEX
  5
1EB
330
1BD
100
AcDbEntity
  8
BASE
100
AcDbFaceRecord
 10
0.0
 20
0.0
 30
0.0
 70
   128
 71
    19
 72
    20
 73
    26
 74
    25
  0
VERTEX
  5
1EC
330
1BD
100
AcDbEntity
  8
BASE
100
AcDbFaceRecord
 10
0.0
 20
0.0
 30
0.0
 70
   128
 71
    20
 72
    21
 73
    27
 74
    26
  0
VERTEX
  5
1ED
330
1BD
100
AcDbEntity
  8
BASE
100
AcDbFaceRecord
 10
0.0
 20
0.0
 30
0.0
 70
   128
 71
    21
 72
    22
 73
    28
 74
    27
  0
VERTEX
  5
1EE
330
1BD
100
AcDbEntity
  8
BASE
100
AcDbFaceRecord
 10
0.0
 20
0.0
 30
0.0
 70
   128
 71
    22
 72
    23
 73
    29
 74
    28
  0
VERTEX
  5
1EF
330
1BD
100
AcDbEntity
  8
BASE
100
AcDbFaceRecord
 10
0.0
 20
0.0
 30
0.0
 70
   128
 71
    23
 72
    24
 73
    30
 74
    29
  0
SEQEND
  5
1F0
330
1BD
100
AcDbEntity
  8
BASE
  0
POLYLINE
  5
1F1
330
1F
100
AcDbEntity
  8
BASE
100
AcDbPolyFaceMesh
 66
     1
 10
0.0
 20
0.0
 30
0.0
 70
    64
 71
    10
 72
     4
  0
VERTEX
  5
1F2
330
1F1
100
AcDbEntity
  8
BASE
100
AcDbVertex
100
AcDbPolyFaceMeshVertex
 10
10.83873653411865
 20
-11.41683959960938
 30
15.12372016906738
 70
   192
  0
VERTEX
  5
1F3
330
1F1
100
AcDbEntity
  8
BASE
100
AcDbVertex
100
AcDbPolyFaceMeshVertex
 10
10.94225788116455
 20
-11.61256694793701
 30
15.28795528411865
 70
   192
  0
VERTEX
  5
1F4
330
1F1
100
AcDbEntity
  8
BASE
100
AcDbVertex
100
AcDbPolyFaceMeshVertex
 10
11.19295692443848
 20
-11.69395351409912
 30
15.35624694824219
 70
   192
  0
VERTEX
  5
1F5
330
1F1
100
AcDbEntity
  8
BASE
100
AcDbVertex
100
AcDbPolyFaceMeshVertex
 10
11.44151592254639
 20
-11.60879898071289
 30
15.28479194641113
 70
   192
  0
VERTEX
  5
1F6
330
1F1
100
AcDbEntity
  8
BASE
100
AcDbVertex
100
AcDbPolyFaceMeshVertex
 10
11.53998184204102
 20
-11.41154766082764
 30
15.11927890777588
 70
   192
  0
VERTEX
  5
1F7
330
1F1
100
AcDbEntity
  8
BASE
100
AcDbVertex
100
AcDbPolyFaceMeshVertex
 10
10.83873653411865
 20
-21.91922569274902
 30
0.0057547707110643
 70
   192
  0
VERTEX
  5
1F8
330
1F1
100
AcDbEntity
  8
BASE
100
AcDbVertex
100
AcDbPolyFaceMeshVertex
 10
10.94092655181885
 20
-22.17661476135254
 30
0.008017223328352
 70
   192
  0
VERTEX
  5
1F9
330
1F1
100
AcDbEntity
  8
BASE
100
AcDbVertex
100
AcDbPolyFaceMeshVertex
 10
11.19294548034668
 20
-22.27977180480957
 30
0.0089239841327071
 70
   192
  0
VERTEX
  5
1FA
330
1F1
100
AcDbEntity
  8
BASE
100
AcDbVertex
100
AcDbPolyFaceMeshVertex
 10
11.44288444519043
 20
-22.17166900634766
 30
0.0079737547785044
 70
   192
  0
VERTEX
  5
1FB
330
1F1
100
AcDbEntity
  8
BASE
100
AcDbVertex
100
AcDbPolyFaceMeshVertex
 10
11.53998184204102
 20
-21.91231727600098
 30
0.0056940438225865
 70
   192
  0
VERTEX
  5
1FC
330
1F1
100
AcDbEntity
  8
BASE
100
AcDbFaceRecord
 10
0.0
 20
0.0
 30
0.0
 70
   128
 71
     1
 72
     2
 73
     7
 74
     6
  0
VERTEX
  5
1FD
330
1F1
100
AcDbEntity
  8
BASE
100
AcDbFaceRecord
 10
0.0
 20
0.0
 30
0.0
 70
   128
 71
     2
 72
     3
 73
     8
 74
     7
  0
VERTEX
  5
1FE
330
1F1
100
AcDbEntity
  8
BASE
100
AcDbFaceRecord
 10
0.0
 20
0.0
 30
0.0
 70
   128
 71
     3
 72
     4
 73
     9
 74
     8
  0
VERTEX
  5
1FF
330
1F1
100
AcDbEntity
  8
BASE
100
AcDbFaceRecord
 10
0.0
 20
0.0
 30
0.0
 70
   128
 71
     4
 72
     5
 73
    10
 74
     9
  0
SEQEND
  5
200
330
1F1
100
AcDbEntity
  8
BASE
  0
POLYLINE
  5
201
330
1F
100
AcDbEntity
  8
BASE
100
AcDbPolyFaceMesh
 66
     1
 10
0.0
 20
0.0
 30
0.0
 70
    64
 71
    30
 72
    20
  0
VERTEX
  5
202
330
201
100
AcDbEntity
  8
BASE
100
AcDbVertex
100
AcDbPolyFaceMeshVertex
 10
10.83873653411865
 20
-10.44791316986084
 30
17.86628913879395
 70
   192
  0
VERTEX
  5
203
330
201
100
AcDbEntity
  8
BASE
100
AcDbVertex
100
AcDbPolyFaceMeshVertex
 10
10.83873653411865
 20
-10.53225708007812
 30
17.2850399017334
 70
   192
  0
VERTEX
  5
204
330
201
100
AcDbEntity
  8
BASE
100
AcDbVertex
100
AcDbPolyFaceMeshVertex
 10
10.83873653411865
 20
-10.672926902771
 30
16.71479988098145
 70
   192
  0
VERTEX
  5
205
330
201
100
AcDbEntity
  8
BASE
100
AcDbVertex
100
AcDbPolyFaceMeshVertex
 10
10.83873653411865
 20
-10.868577003479
 30
16.16100883483887
 70
   192
  0
VERTEX
  5
206
330
201
100
AcDbEntity
  8
BASE
100
AcDbVertex
100
AcDbPolyFaceMeshVertex
 10
10.83873653411865
 20
-11.11733913421631
 30
15.62895584106445
 70
   192
  0
VERTEX
  5
207
330
201
100
AcDbEntity
  8
BASE
100
AcDbVertex
100
AcDbPolyFaceMeshVertex
 10
10.83873653411865
 20
-11.41683959960938
 30
15.12372016906738
 70
   192
  0
VERTEX
  5
208
330
201
100
AcDbEntity
  8
BASE
100
AcDbVertex
100
AcDbPolyFaceMeshVertex
 10
10.94092655181885
 20
-10.70530986785889
 30
17.86628913879395
 70
   192
  0
VERTEX
  5
209
330
201
100
AcDbEntity
  8
BASE
100
AcDbVertex
100
AcDbPolyFaceMeshVertex
 10
10.94119262695312
 20
-10.77731704711914
 30
17.31788444519043
 70
   192
  0
VERTEX
  5
20A
330
201
100
AcDbEntity
  8
BASE
100
AcDbVertex
100
AcDbPolyFaceMeshVertex
 10
10.9414587020874
 20
-10.9056510925293
 30
16.78048896789551
 70
   192
  0
VERTEX
  5
20B
330
201
100
AcDbEntity
  8
BASE
100
AcDbVertex
100
AcDbPolyFaceMeshVertex
 10
10.941725730896
 20
-11.08896636962891
 30
16.25954818725586
 70
   192
  0
VERTEX
  5
20C
330
201
100
AcDbEntity
  8
BASE
100
AcDbVertex
100
AcDbPolyFaceMeshVertex
 10
10.94199085235596
 20
-11.32539653778076
 30
15.76034355163574
 70
   192
  0
VERTEX
  5
20D
330
201
100
AcDbEntity
  8
BASE
100
AcDbVertex
100
AcDbPolyFaceMeshVertex
 10
10.94225788116455
 20
-11.61256694793701
 30
15.28795528411865
 70
   192
  0
VERTEX
  5
20E
330
201
100
AcDbEntity
  8
BASE
100
AcDbVertex
100
AcDbPolyFaceMeshVertex
 10
11.19294548034668
 20
-10.80847072601318
 30
17.86628913879395
 70
   192
  0
VERTEX
  5
20F
330
201
100
AcDbEntity
  8
BASE
100
AcDbVertex
100
AcDbPolyFaceMeshVertex
 10
11.19294834136963
 20
-10.87612056732178
 30
17.33153915405273
 70
   192
  0
VERTEX
  5
210
330
201
100
AcDbEntity
  8
BASE
100
AcDbVertex
100
AcDbPolyFaceMeshVertex
 10
11.19295024871826
 20
-11.00009822845459
 30
16.80780410766602
 70
   192
  0
VERTEX
  5
211
330
201
100
AcDbEntity
  8
BASE
100
AcDbVertex
100
AcDbPolyFaceMeshVertex
 10
11.19295215606689
 20
-11.17905712127686
 30
16.30052375793457
 70
   192
  0
VERTEX
  5
212
330
201
100
AcDbEntity
  8
BASE
100
AcDbVertex
100
AcDbPolyFaceMeshVertex
 10
11.19295501708984
 20
-11.41113376617432
 30
15.81497669219971
 70
   192
  0
VERTEX
  5
213
330
201
100
AcDbEntity
  8
BASE
100
AcDbVertex
100
AcDbPolyFaceMeshVertex
 10
11.19295692443848
 20
-11.69395351409912
 30
15.35624694824219
 70
   192
  0
VERTEX
  5
214
330
201
100
AcDbEntity
  8
BASE
100
AcDbVertex
100
AcDbPolyFaceMeshVertex
 10
11.44288444519043
 20
-10.700364112854
 30
17.86628913879395
 70
   192
  0
VERTEX
  5
215
330
201
100
AcDbEntity
  8
BASE
100
AcDbVertex
100
AcDbPolyFaceMeshVertex
 10
11.4426097869873
 20
-10.77260303497314
 30
17.31724548339844
 70
   192
  0
VERTEX
  5
216
330
201
100
AcDbEntity
  8
BASE
100
AcDbVertex
100
AcDbPolyFaceMeshVertex
 10
11.4423360824585
 20
-10.90116691589355
 30
16.77921867370605
 70
   192
  0
VERTEX
  5
217
330
201
100
AcDbEntity
  8
BASE
100
AcDbVertex
100
AcDbPolyFaceMeshVertex
 10
11.44206237792969
 20
-11.08471775054932
 30
16.25764846801758
 70
   192
  0
VERTEX
  5
218
330
201
100
AcDbEntity
  8
BASE
100
AcDbVertex
100
AcDbPolyFaceMeshVertex
 10
11.4417896270752
 20
-11.32138442993164
 30
15.75781440734863
 70
   192
  0
VERTEX
  5
219
330
201
100
AcDbEntity
  8
BASE
100
AcDbVertex
100
AcDbPolyFaceMeshVertex
 10
11.44151592254639
 20
-11.60879898071289
 30
15.28479194641113
 70
   192
  0
VERTEX
  5
21A
330
201
100
AcDbEntity
  8
BASE
100
AcDbVertex
100
AcDbPolyFaceMeshVertex
 10
11.53998184204102
 20
-10.44100475311279
 30
17.86628913879395
 70
   192
  0
VERTEX
  5
21B
330
201
100
AcDbEntity
  8
BASE
100
AcDbVertex
100
AcDbPolyFaceMeshVertex
 10
11.53998184204102
 20
-10.52566146850586
 30
17.28413772583008
 70
   192
  0
VERTEX
  5
21C
330
201
100
AcDbEntity
  8
BASE
100
AcDbVertex
100
AcDbPolyFaceMeshVertex
 10
11.53998184204102
 20
-10.66664695739746
 30
16.71300888061523
 70
   192
  0
VERTEX
  5
21D
330
201
100
AcDbEntity
  8
BASE
100
AcDbVertex
100
AcDbPolyFaceMeshVertex
 10
11.53998184204102
 20
-10.86261653900146
 30
16.15833854675293
 70
   192
  0
VERTEX
  5
21E
330
201
100
AcDbEntity
  8
BASE
100
AcDbVertex
100
AcDbPolyFaceMeshVertex
 10
11.53998184204102
 20
-11.11170673370361
 30
15.62540435791016
 70
   192
  0
VERTEX
  5
21F
330
201
100
AcDbEntity
  8
BASE
100
AcDbVertex
100
AcDbPolyFaceMeshVertex
 10
11.53998184204102
 20
-11.41154766082764
 30
15.11927890777588
 70
   192
  0
VERTEX
  5
220
330
201
100
AcDbEntity
  8
BASE
100
AcDbFaceRecord
 10
0.0
 20
0.0
 30
0.0
 70
   128
 71
     1
 72
     2
 73
     8
 74
     7
  0
VERTEX
  5
221
330
201
100
AcDbEntity
  8
BASE
100
AcDbFaceRecord
 10
0.0
 20
0.0
 30
0.0
 70
   128
 71
     2
 72
     3
 73
     9
 74
     8
  0
VERTEX
  5
222
330
201
100
AcDbEntity
  8
BASE
100
AcDbFaceRecord
 10
0.0
 20
0.0
 30
0.0
 70
   128
 71
     3
 72
     4
 73
    10
 74
     9
  0
VERTEX
  5
223
330
201
100
AcDbEntity
  8
BASE
100
AcDbFaceRecord
 10
0.0
 20
0.0
 30
0.0
 70
   128
 71
     4
 72
     5
 73
    11
 74
    10
  0
VERTEX
  5
224
330
201
100
AcDbEntity
  8
BASE
100
AcDbFaceRecord
 10
0.0
 20
0.0
 30
0.0
 70
   128
 71
     5
 72
     6
 73
    12
 74
    11
  0
VERTEX
  5
225
330
201
100
AcDbEntity
  8
BASE
100
AcDbFaceRecord
 10
0.0
 20
0.0
 30
0.0
 70
   128
 71
     7
 72
     8
 73
    14
 74
    13
  0
VERTEX
  5
226
330
201
100
AcDbEntity
  8
BASE
100
AcDbFaceRecord
 10
0.0
 20
0.0
 30
0.0
 70
   128
 71
     8
 72
     9
 73
    15
 74
    14
  0
VERTEX
  5
227
330
201
100
AcDbEntity
  8
BASE
100
AcDbFaceRecord
 10
0.0
 20
0.0
 30
0.0
 70
   128
 71
     9
 72
    10
 73
    16
 74
    15
  0
VERTEX
  5
228
330
201
100
AcDbEntity
  8
BASE
100
AcDbFaceRecord
 10
0.0
 20
0.0
 30
0.0
 70
   128
 71
    10
 72
    11
 73
    17
 74
    16
  0
VERTEX
  5
229
330
201
100
AcDbEntity
  8
BASE
100
AcDbFaceRecord
 10
0.0
 20
0.0
 30
0.0
 70
   128
 71
    11
 72
    12
 73
    18
 74
    17
  0
VERTEX
  5
22A
330
201
100
AcDbEntity
  8
BASE
100
AcDbFaceRecord
 10
0.0
 20
0.0
 30
0.0
 70
   128
 71
    13
 72
    14
 73
    20
 74
    19
  0
VERTEX
  5
22B
330
201
100
AcDbEntity
  8
BASE
100
AcDbFaceRecord
 10
0.0
 20
0.0
 30
0.0
 70
   128
 71
    14
 72
    15
 73
    21
 74
    20
  0
VERTEX
  5
22C
330
201
100
AcDbEntity
  8
BASE
100
AcDbFaceRecord
 10
0.0
 20
0.0
 30
0.0
 70
   128
 71
    15
 72
    16
 73
    22
 74
    21
  0
VERTEX
  5
22D
330
201
100
AcDbEntity
  8
BASE
100
AcDbFaceRecord
 10
0.0
 20
0.0
 30
0.0
 70
   128
 71
    16
 72
    17
 73
    23
 74
    22
  0
VERTEX
  5
22E
330
201
100
AcDbEntity
  8
BASE
100
AcDbFaceRecord
 10
0.0
 20
0.0
 30
0.0
 70
   128
 71
    17
 72
    18
 73
    24
 74
    23
  0
VERTEX
  5
22F
330
201
100
AcDbEntity
  8
BASE
100
AcDbFaceRecord
 10
0.0
 20
0.0
 30
0.0
 70
   128
 71
    19
 72
    20
 73
    26
 74
    25
  0
VERTEX
  5
230
330
201
100
AcDbEntity
  8
BASE
100
AcDbFaceRecord
 10
0.0
 20
0.0
 30
0.0
 70
   128
 71
    20
 72
    21
 73
    27
 74
    26
  0
VERTEX
  5
231
330
201
100
AcDbEntity
  8
BASE
100
AcDbFaceRecord
 10
0.0
 20
0.0
 30
0.0
 70
   128
 71
    21
 72
    22
 73
    28
 74
    27
  0
VERTEX
  5
232
330
201
100
AcDbEntity
  8
BASE
100
AcDbFaceRecord
 10
0.0
 20
0.0
 30
0.0
 70
   128
 71
    22
 72
    23
 73
    29
 74
    28
  0
VERTEX
  5
233
330
201
100
AcDbEntity
  8
BASE
100
AcDbFaceRecord
 10
0.0
 20
0.0
 30
0.0
 70
   128
 71
    23
 72
    24
 73
    30
 74
    29
  0
SEQEND
  5
234
330
201
100
AcDbEntity
  8
BASE
  0
POLYLINE
  5
236
330
1F
100
AcDbEntity
  8
CUPULA
100
AcDbPolyFaceMesh
 66
     1
 10
0.0
 20
0.0
 30
0.0
 70
    64
 71
    24
 72
    12
  0
VERTEX
  5
237
330
236
100
AcDbEntity
  8
CUPULA
100
AcDbVertex
100
AcDbPolyFaceMeshVertex
 10
21.19099426269531
 20
-9.842519760131836
 30
63.75386428833008
 70
   192
  0
VERTEX
  5
238
330
236
100
AcDbEntity
  8
CUPULA
100
AcDbVertex
100
AcDbPolyFaceMeshVertex
 10
19.87234687805176
 20
-4.921259880065918
 30
63.75386428833008
 70
   192
  0
VERTEX
  5
239
330
236
100
AcDbEntity
  8
CUPULA
100
AcDbVertex
100
AcDbPolyFaceMeshVertex
 10
16.26973533630371
 20
-1.318647503852844
 30
63.75386428833008
 70
   192
  0
VERTEX
  5
23A
330
236
100
AcDbEntity
  8
CUPULA
100
AcDbVertex
100
AcDbPolyFaceMeshVertex
 10
11.34847545623779
 20
0.0
 30
63.75386428833008
 70
   192
  0
VERTEX
  5
23B
330
236
100
AcDbEntity
  8
CUPULA
100
AcDbVertex
100
AcDbPolyFaceMeshVertex
 10
6.427216053009033
 20
-1.318647503852844
 30
63.75386428833008
 70
   192
  0
VERTEX
  5
23C
330
236
100
AcDbEntity
  8
CUPULA
100
AcDbVertex
100
AcDbPolyFaceMeshVertex
 10
2.82460355758667
 20
-4.921259880065918
 30
63.75386428833008
 70
   192
  0
VERTEX
  5
23D
330
236
100
AcDbEntity
  8
CUPULA
100
AcDbVertex
100
AcDbPolyFaceMeshVertex
 10
1.505955815315247
 20
-9.842519760131836
 30
63.75386428833008
 70
   192
  0
VERTEX
  5
23E
330
236
100
AcDbEntity
  8
CUPULA
100
AcDbVertex
100
AcDbPolyFaceMeshVertex
 10
2.82460355758667
 20
-14.76377964019775
 30
63.75386428833008
 70
   192
  0
VERTEX
  5
23F
330
236
100
AcDbEntity
  8
CUPULA
100
AcDbVertex
100
AcDbPolyFaceMeshVertex
 10
6.427216053009033
 20
-18.36639213562012
 30
63.75386428833008
 70
   192
  0
VERTEX
  5
240
330
236
100
AcDbEntity
  8
CUPULA
100
AcDbVertex
100
AcDbPolyFaceMeshVertex
 10
11.34847545623779
 20
-19.68503952026367
 30
63.75386428833008
 70
   192
  0
VERTEX
  5
241
330
236
100
AcDbEntity
  8
CUPULA
100
AcDbVertex
100
AcDbPolyFaceMeshVertex
 10
16.26973533630371
 20
-18.36639213562012
 30
63.75386428833008
 70
   192
  0
VERTEX
  5
242
330
236
100
AcDbEntity
  8
CUPULA
100
AcDbVertex
100
AcDbPolyFaceMeshVertex
 10
19.87234687805176
 20
-14.76377964019775
 30
63.75386428833008
 70
   192
  0
VERTEX
  5
243
330
236
100
AcDbEntity
  8
CUPULA
100
AcDbVertex
100
AcDbPolyFaceMeshVertex
 10
20.99414443969727
 20
-9.842519760131836
 30
63.75410842895508
 70
   192
  0
VERTEX
  5
244
330
236
100
AcDbEntity
  8
CUPULA
100
AcDbVertex
100
AcDbPolyFaceMeshVertex
 10
19.70186996459961
 20
-5.0196852684021
 30
63.75410842895508
 70
   192
  0
VERTEX
  5
245
330
236
100
AcDbEntity
  8
CUPULA
100
AcDbVertex
100
AcDbPolyFaceMeshVertex
 10
16.17131042480469
 20
-1.48912513256073
 30
63.75410842895508
 70
   192
  0
VERTEX
  5
246
330
236
100
AcDbEntity
  8
CUPULA
100
AcDbVertex
100
AcDbPolyFaceMeshVertex
 10
11.34847545623779
 20
-0.1968503892421722
 30
63.75410842895508
 70
   192
  0
VERTEX
  5
247
330
236
100
AcDbEntity
  8
CUPULA
100
AcDbVertex
100
AcDbPolyFaceMeshVertex
 10
6.525640964508057
 20
-1.48912513256073
 30
63.75410842895508
 70
   192
  0
VERTEX
  5
248
330
236
100
AcDbEntity
  8
CUPULA
100
AcDbVertex
100
AcDbPolyFaceMeshVertex
 10
2.995080709457397
 20
-5.0196852684021
 30
63.75410842895508
 70
   192
  0
VERTEX
  5
249
330
236
100
AcDbEntity
  8
CUPULA
100
AcDbVertex
100
AcDbPolyFaceMeshVertex
 10
1.702806115150452
 20
-9.842519760131836
 30
63.75410842895508
 70
   192
  0
VERTEX
  5
24A
330
236
100
AcDbEntity
  8
CUPULA
100
AcDbVertex
100
AcDbPolyFaceMeshVertex
 10
2.995080709457397
 20
-14.66535472869873
 30
63.75410842895508
 70
   192
  0
VERTEX
  5
24B
330
236
100
AcDbEntity
  8
CUPULA
100
AcDbVertex
100
AcDbPolyFaceMeshVertex
 10
6.525640964508057
 20
-18.19591522216797
 30
63.75410842895508
 70
   192
  0
VERTEX
  5
24C
330
236
100
AcDbEntity
  8
CUPULA
100
AcDbVertex
100
AcDbPolyFaceMeshVertex
 10
11.34847545623779
 20
-19.48818969726562
 30
63.75410842895508
 70
   192
  0
VERTEX
  5
24D
330
236
100
AcDbEntity
  8
CUPULA
100
AcDbVertex
100
AcDbPolyFaceMeshVertex
 10
16.17131042480469
 20
-18.19591522216797
 30
63.75410842895508
 70
   192
  0
VERTEX
  5
24E
330
236
100
AcDbEntity
  8
CUPULA
100
AcDbVertex
100
AcDbPolyFaceMeshVertex
 10
19.70186996459961
 20
-14.66535472869873
 30
63.75410842895508
 70
   192
  0
VERTEX
  5
24F
330
236
100
AcDbEntity
  8
CUPULA
100
AcDbFaceRecord
 10
0.0
 20
0.0
 30
0.0
 70
   128
 71
     1
 72
     2
 73
    14
 74
    13
  0
VERTEX
  5
250
330
236
100
AcDbEntity
  8
CUPULA
100
AcDbFaceRecord
 10
0.0
 20
0.0
 30
0.0
 70
   128
 71
     2
 72
     3
 73
    15
 74
    14
  0
VERTEX
  5
251
330
236
100
AcDbEntity
  8
CUPULA
100
AcDbFaceRecord
 10
0.0
 20
0.0
 30
0.0
 70
   128
 71
     3
 72
     4
 73
    16
 74
    15
  0
VERTEX
  5
252
330
236
100
AcDbEntity
  8
CUPULA
100
AcDbFaceRecord
 10
0.0
 20
0.0
 30
0.0
 70
   128
 71
     4
 72
     5
 73
    17
 74
    16
  0
VERTEX
  5
253
330
236
100
AcDbEntity
  8
CUPULA
100
AcDbFaceRecord
 10
0.0
 20
0.0
 30
0.0
 70
   128
 71
     5
 72
     6
 73
    18
 74
    17
  0
VERTEX
  5
254
330
236
100
AcDbEntity
  8
CUPULA
100
AcDbFaceRecord
 10
0.0
 20
0.0
 30
0.0
 70
   128
 71
     6
 72
     7
 73
    19
 74
    18
  0
VERTEX
  5
255
330
236
100
AcDbEntity
  8
CUPULA
100
AcDbFaceRecord
 10
0.0
 20
0.0
 30
0.0
 70
   128
 71
     7
 72
     8
 73
    20
 74
    19
  0
VERTEX
  5
256
330
236
100
AcDbEntity
  8
CUPULA
100
AcDbFaceRecord
 10
0.0
 20
0.0
 30
0.0
 70
   128
 71
     8
 72
     9
 73
    21
 74
    20
  0
VERTEX
  5
257
330
236
100
AcDbEntity
  8
CUPULA
100
AcDbFaceRecord
 10
0.0
 20
0.0
 30
0.0
 70
   128
 71
     9
 72
    10
 73
    22
 74
    21
  0
VERTEX
  5
258
330
236
100
AcDbEntity
  8
CUPULA
100
AcDbFaceRecord
 10
0.0
 20
0.0
 30
0.0
 70
   128
 71
    10
 72
    11
 73
    23
 74
    22
  0
VERTEX
  5
259
330
236
100
AcDbEntity
  8
CUPULA
100
AcDbFaceRecord
 10
0.0
 20
0.0
 30
0.0
 70
   128
 71
    11
 72
    12
 73
    24
 74
    23
  0
VERTEX
  5
25A
330
236
100
AcDbEntity
  8
CUPULA
100
AcDbFaceRecord
 10
0.0
 20
0.0
 30
0.0
 70
   128
 71
    12
 72
     1
 73
    13
 74
    24
  0
SEQEND
  5
25B
330
236
100
AcDbEntity
  8
CUPULA
  0
POLYLINE
  5
25C
330
1F
100
AcDbEntity
  8
CUPULA
100
AcDbPolyFaceMesh
 66
     1
 10
0.0
 20
0.0
 30
0.0
 70
    64
 71
    24
 72
    12
  0
VERTEX
  5
25D
330
25C
100
AcDbEntity
  8
CUPULA
100
AcDbVertex
100
AcDbPolyFaceMeshVertex
 10
18.23823928833008
 20
-9.842519760131836
 30
83.49891662597656
 70
   192
  0
VERTEX
  5
25E
330
25C
100
AcDbEntity
  8
CUPULA
100
AcDbVertex
100
AcDbPolyFaceMeshVertex
 10
17.315185546875
 20
-6.397637844085693
 30
83.49891662597656
 70
   192
  0
VERTEX
  5
25F
330
25C
100
AcDbEntity
  8
CUPULA
100
AcDbVertex
100
AcDbPolyFaceMeshVertex
 10
14.79335689544678
 20
-3.87580943107605
 30
83.49891662597656
 70
   192
  0
VERTEX
  5
260
330
25C
100
AcDbEntity
  8
CUPULA
100
AcDbVertex
100
AcDbPolyFaceMeshVertex
 10
11.34847545623779
 20
-2.952755928039551
 30
83.49891662597656
 70
   192
  0
VERTEX
  5
261
330
25C
100
AcDbEntity
  8
CUPULA
100
AcDbVertex
100
AcDbPolyFaceMeshVertex
 10
7.903594017028809
 20
-3.87580943107605
 30
83.49891662597656
 70
   192
  0
VERTEX
  5
262
330
25C
100
AcDbEntity
  8
CUPULA
100
AcDbVertex
100
AcDbPolyFaceMeshVertex
 10
5.381765365600586
 20
-6.397637844085693
 30
83.49891662597656
 70
   192
  0
VERTEX
  5
263
330
25C
100
AcDbEntity
  8
CUPULA
100
AcDbVertex
100
AcDbPolyFaceMeshVertex
 10
4.458711624145508
 20
-9.842519760131836
 30
83.49891662597656
 70
   192
  0
VERTEX
  5
264
330
25C
100
AcDbEntity
  8
CUPULA
100
AcDbVertex
100
AcDbPolyFaceMeshVertex
 10
5.381765365600586
 20
-13.28740119934082
 30
83.49891662597656
 70
   192
  0
VERTEX
  5
265
330
25C
100
AcDbEntity
  8
CUPULA
100
AcDbVertex
100
AcDbPolyFaceMeshVertex
 10
7.903594017028809
 20
-15.80923080444336
 30
83.49891662597656
 70
   192
  0
VERTEX
  5
266
330
25C
100
AcDbEntity
  8
CUPULA
100
AcDbVertex
100
AcDbPolyFaceMeshVertex
 10
11.34847545623779
 20
-16.7322826385498
 30
83.49891662597656
 70
   192
  0
VERTEX
  5
267
330
25C
100
AcDbEntity
  8
CUPULA
100
AcDbVertex
100
AcDbPolyFaceMeshVertex
 10
14.79335689544678
 20
-15.80923080444336
 30
83.49891662597656
 70
   192
  0
VERTEX
  5
268
330
25C
100
AcDbEntity
  8
CUPULA
100
AcDbVertex
100
AcDbPolyFaceMeshVertex
 10
17.315185546875
 20
-13.28740119934082
 30
83.49891662597656
 70
   192
  0
VERTEX
  5
269
330
25C
100
AcDbEntity
  8
CUPULA
100
AcDbVertex
100
AcDbPolyFaceMeshVertex
 10
18.10044479370117
 20
-9.842519760131836
 30
83.49891662597656
 70
   192
  0
VERTEX
  5
26A
330
25C
100
AcDbEntity
  8
CUPULA
100
AcDbVertex
100
AcDbPolyFaceMeshVertex
 10
17.19585227966309
 20
-6.466535091400146
 30
83.49891662597656
 70
   192
  0
VERTEX
  5
26B
330
25C
100
AcDbEntity
  8
CUPULA
100
AcDbVertex
100
AcDbPolyFaceMeshVertex
 10
14.72445964813232
 20
-3.99514365196228
 30
83.49891662597656
 70
   192
  0
VERTEX
  5
26C
330
25C
100
AcDbEntity
  8
CUPULA
100
AcDbVertex
100
AcDbPolyFaceMeshVertex
 10
11.34847545623779
 20
-3.090551137924194
 30
83.49891662597656
 70
   192
  0
VERTEX
  5
26D
330
25C
100
AcDbEntity
  8
CUPULA
100
AcDbVertex
100
AcDbPolyFaceMeshVertex
 10
7.972491264343262
 20
-3.99514365196228
 30
83.49891662597656
 70
   192
  0
VERTEX
  5
26E
330
25C
100
AcDbEntity
  8
CUPULA
100
AcDbVertex
100
AcDbPolyFaceMeshVertex
 10
5.501099109649658
 20
-6.466535091400146
 30
83.49891662597656
 70
   192
  0
VERTEX
  5
26F
330
25C
100
AcDbEntity
  8
CUPULA
100
AcDbVertex
100
AcDbPolyFaceMeshVertex
 10
4.596506595611572
 20
-9.842519760131836
 30
83.49891662597656
 70
   192
  0
VERTEX
  5
270
330
25C
100
AcDbEntity
  8
CUPULA
100
AcDbVertex
100
AcDbPolyFaceMeshVertex
 10
5.501099109649658
 20
-13.21850395202637
 30
83.49891662597656
 70
   192
  0
VERTEX
  5
271
330
25C
100
AcDbEntity
  8
CUPULA
100
AcDbVertex
100
AcDbPolyFaceMeshVertex
 10
7.972491264343262
 20
-15.6898946762085
 30
83.49891662597656
 70
   192
  0
VERTEX
  5
272
330
25C
100
AcDbEntity
  8
CUPULA
100
AcDbVertex
100
AcDbPolyFaceMeshVertex
 10
11.34847545623779
 20
-16.5944881439209
 30
83.49891662597656
 70
   192
  0
VERTEX
  5
273
330
25C
100
AcDbEntity
  8
CUPULA
100
AcDbVertex
100
AcDbPolyFaceMeshVertex
 10
14.72445964813232
 20
-15.6898946762085
 30
83.49891662597656
 70
   192
  0
VERTEX
  5
274
330
25C
100
AcDbEntity
  8
CUPULA
100
AcDbVertex
100
AcDbPolyFaceMeshVertex
 10
17.19585227966309
 20
-13.21850395202637
 30
83.49891662597656
 70
   192
  0
VERTEX
  5
275
330
25C
100
AcDbEntity
  8
CUPULA
100
AcDbFaceRecord
 10
0.0
 20
0.0
 30
0.0
 70
   128
 71
     1
 72
     2
 73
    14
 74
    13
  0
VERTEX
  5
276
330
25C
100
AcDbEntity
  8
CUPULA
100
AcDbFaceRecord
 10
0.0
 20
0.0
 30
0.0
 70
   128
 71
     2
 72
     3
 73
    15
 74
    14
  0
VERTEX
  5
277
330
25C
100
AcDbEntity
  8
CUPULA
100
AcDbFaceRecord
 10
0.0
 20
0.0
 30
0.0
 70
   128
 71
     3
 72
     4
 73
    16
 74
    15
  0
VERTEX
  5
278
330
25C
100
AcDbEntity
  8
CUPULA
100
AcDbFaceRecord
 10
0.0
 20
0.0
 30
0.0
 70
   128
 71
     4
 72
     5
 73
    17
 74
    16
  0
VERTEX
  5
279
330
25C
100
AcDbEntity
  8
CUPULA
100
AcDbFaceRecord
 10
0.0
 20
0.0
 30
0.0
 70
   128
 71
     5
 72
     6
 73
    18
 74
    17
  0
VERTEX
  5
27A
330
25C
100
AcDbEntity
  8
CUPULA
100
AcDbFaceRecord
 10
0.0
 20
0.0
 30
0.0
 70
   128
 71
     6
 72
     7
 73
    19
 74
    18
  0
VERTEX
  5
27B
330
25C
100
AcDbEntity
  8
CUPULA
100
AcDbFaceRecord
 10
0.0
 20
0.0
 30
0.0
 70
   128
 71
     7
 72
     8
 73
    20
 74
    19
  0
VERTEX
  5
27C
330
25C
100
AcDbEntity
  8
CUPULA
100
AcDbFaceRecord
 10
0.0
 20
0.0
 30
0.0
 70
   128
 71
     8
 72
     9
 73
    21
 74
    20
  0
VERTEX
  5
27D
330
25C
100
AcDbEntity
  8
CUPULA
100
AcDbFaceRecord
 10
0.0
 20
0.0
 30
0.0
 70
   128
 71
     9
 72
    10
 73
    22
 74
    21
  0
VERTEX
  5
27E
330
25C
100
AcDbEntity
  8
CUPULA
100
AcDbFaceRecord
 10
0.0
 20
0.0
 30
0.0
 70
   128
 71
    10
 72
    11
 73
    23
 74
    22
  0
VERTEX
  5
27F
330
25C
100
AcDbEntity
  8
CUPULA
100
AcDbFaceRecord
 10
0.0
 20
0.0
 30
0.0
 70
   128
 71
    11
 72
    12
 73
    24
 74
    23
  0
VERTEX
  5
280
330
25C
100
AcDbEntity
  8
CUPULA
100
AcDbFaceRecord
 10
0.0
 20
0.0
 30
0.0
 70
   128
 71
    12
 72
     1
 73
    13
 74
    24
  0
SEQEND
  5
281
330
25C
100
AcDbEntity
  8
CUPULA
  0
POLYLINE
  5
282
330
1F
100
AcDbEntity
  8
CUPULA
100
AcDbPolyFaceMesh
 66
     1
 10
0.0
 20
0.0
 30
0.0
 70
    64
 71
    24
 72
    12
  0
VERTEX
  5
283
330
282
100
AcDbEntity
  8
CUPULA
100
AcDbVertex
100
AcDbPolyFaceMeshVertex
 10
21.19099426269531
 20
-9.842519760131836
 30
63.75386428833008
 70
   192
  0
VERTEX
  5
284
330
282
100
AcDbEntity
  8
CUPULA
100
AcDbVertex
100
AcDbPolyFaceMeshVertex
 10
19.87234687805176
 20
-4.921259880065918
 30
63.75386428833008
 70
   192
  0
VERTEX
  5
285
330
282
100
AcDbEntity
  8
CUPULA
100
AcDbVertex
100
AcDbPolyFaceMeshVertex
 10
16.26973533630371
 20
-1.318647503852844
 30
63.75386428833008
 70
   192
  0
VERTEX
  5
286
330
282
100
AcDbEntity
  8
CUPULA
100
AcDbVertex
100
AcDbPolyFaceMeshVertex
 10
11.34847545623779
 20
-0.0000000000000045
 30
63.75386428833008
 70
   192
  0
VERTEX
  5
287
330
282
100
AcDbEntity
  8
CUPULA
100
AcDbVertex
100
AcDbPolyFaceMeshVertex
 10
6.427216053009033
 20
-1.318647503852844
 30
63.75386428833008
 70
   192
  0
VERTEX
  5
288
330
282
100
AcDbEntity
  8
CUPULA
100
AcDbVertex
100
AcDbPolyFaceMeshVertex
 10
2.82460355758667
 20
-4.921259880065918
 30
63.75386428833008
 70
   192
  0
VERTEX
  5
289
330
282
100
AcDbEntity
  8
CUPULA
100
AcDbVertex
100
AcDbPolyFaceMeshVertex
 10
1.505955815315247
 20
-9.842519760131836
 30
63.75386428833008
 70
   192
  0
VERTEX
  5
28A
330
282
100
AcDbEntity
  8
CUPULA
100
AcDbVertex
100
AcDbPolyFaceMeshVertex
 10
2.82460355758667
 20
-14.76377964019775
 30
63.75386428833008
 70
   192
  0
VERTEX
  5
28B
330
282
100
AcDbEntity
  8
CUPULA
100
AcDbVertex
100
AcDbPolyFaceMeshVertex
 10
6.427216053009033
 20
-18.36639213562012
 30
63.75386428833008
 70
   192
  0
VERTEX
  5
28C
330
282
100
AcDbEntity
  8
CUPULA
100
AcDbVertex
100
AcDbPolyFaceMeshVertex
 10
11.34847545623779
 20
-19.68503952026367
 30
63.75386428833008
 70
   192
  0
VERTEX
  5
28D
330
282
100
AcDbEntity
  8
CUPULA
100
AcDbVertex
100
AcDbPolyFaceMeshVertex
 10
16.26973533630371
 20
-18.36639213562012
 30
63.75386428833008
 70
   192
  0
VERTEX
  5
28E
330
282
100
AcDbEntity
  8
CUPULA
100
AcDbVertex
100
AcDbPolyFaceMeshVertex
 10
19.87234687805176
 20
-14.76377964019775
 30
63.75386428833008
 70
   192
  0
VERTEX
  5
28F
330
282
100
AcDbEntity
  8
CUPULA
100
AcDbVertex
100
AcDbPolyFaceMeshVertex
 10
18.23823928833008
 20
-9.842519760131836
 30
83.49891662597656
 70
   192
  0
VERTEX
  5
290
330
282
100
AcDbEntity
  8
CUPULA
100
AcDbVertex
100
AcDbPolyFaceMeshVertex
 10
17.315185546875
 20
-6.397637844085693
 30
83.49891662597656
 70
   192
  0
VERTEX
  5
291
330
282
100
AcDbEntity
  8
CUPULA
100
AcDbVertex
100
AcDbPolyFaceMeshVertex
 10
14.79335689544678
 20
-3.87580943107605
 30
83.49891662597656
 70
   192
  0
VERTEX
  5
292
330
282
100
AcDbEntity
  8
CUPULA
100
AcDbVertex
100
AcDbPolyFaceMeshVertex
 10
11.34847545623779
 20
-2.952755928039551
 30
83.49891662597656
 70
   192
  0
VERTEX
  5
293
330
282
100
AcDbEntity
  8
CUPULA
100
AcDbVertex
100
AcDbPolyFaceMeshVertex
 10
7.903594017028809
 20
-3.87580943107605
 30
83.49891662597656
 70
   192
  0
VERTEX
  5
294
330
282
100
AcDbEntity
  8
CUPULA
100
AcDbVertex
100
AcDbPolyFaceMeshVertex
 10
5.381765365600586
 20
-6.397637844085693
 30
83.49891662597656
 70
   192
  0
VERTEX
  5
295
330
282
100
AcDbEntity
  8
CUPULA
100
AcDbVertex
100
AcDbPolyFaceMeshVertex
 10
4.458711624145508
 20
-9.842519760131836
 30
83.49891662597656
 70
   192
  0
VERTEX
  5
296
330
282
100
AcDbEntity
  8
CUPULA
100
AcDbVertex
100
AcDbPolyFaceMeshVertex
 10
5.381765365600586
 20
-13.28740119934082
 30
83.49891662597656
 70
   192
  0
VERTEX
  5
297
330
282
100
AcDbEntity
  8
CUPULA
100
AcDbVertex
100
AcDbPolyFaceMeshVertex
 10
7.903594017028809
 20
-15.80923080444336
 30
83.49891662597656
 70
   192
  0
VERTEX
  5
298
330
282
100
AcDbEntity
  8
CUPULA
100
AcDbVertex
100
AcDbPolyFaceMeshVertex
 10
11.34847545623779
 20
-16.7322826385498
 30
83.49891662597656
 70
   192
  0
VERTEX
  5
299
330
282
100
AcDbEntity
  8
CUPULA
100
AcDbVertex
100
AcDbPolyFaceMeshVertex
 10
14.79335689544678
 20
-15.80923080444336
 30
83.49891662597656
 70
   192
  0
VERTEX
  5
29A
330
282
100
AcDbEntity
  8
CUPULA
100
AcDbVertex
100
AcDbPolyFaceMeshVertex
 10
17.315185546875
 20
-13.28740119934082
 30
83.49891662597656
 70
   192
  0
VERTEX
  5
29B
330
282
100
AcDbEntity
  8
CUPULA
100
AcDbFaceRecord
 10
0.0
 20
0.0
 30
0.0
 70
   128
 71
     1
 72
     2
 73
    14
 74
    13
  0
VERTEX
  5
29C
330
282
100
AcDbEntity
  8
CUPULA
100
AcDbFaceRecord
 10
0.0
 20
0.0
 30
0.0
 70
   128
 71
     2
 72
     3
 73
    15
 74
    14
  0
VERTEX
  5
29D
330
282
100
AcDbEntity
  8
CUPULA
100
AcDbFaceRecord
 10
0.0
 20
0.0
 30
0.0
 70
   128
 71
     3
 72
     4
 73
    16
 74
    15
  0
VERTEX
  5
29E
330
282
100
AcDbEntity
  8
CUPULA
100
AcDbFaceRecord
 10
0.0
 20
0.0
 30
0.0
 70
   128
 71
     4
 72
     5
 73
    17
 74
    16
  0
VERTEX
  5
29F
330
282
100
AcDbEntity
  8
CUPULA
100
AcDbFaceRecord
 10
0.0
 20
0.0
 30
0.0
 70
   128
 71
     5
 72
     6
 73
    18
 74
    17
  0
VERTEX
  5
2A0
330
282
100
AcDbEntity
  8
CUPULA
100
AcDbFaceRecord
 10
0.0
 20
0.0
 30
0.0
 70
   128
 71
     6
 72
     7
 73
    19
 74
    18
  0
VERTEX
  5
2A1
330
282
100
AcDbEntity
  8
CUPULA
100
AcDbFaceRecord
 10
0.0
 20
0.0
 30
0.0
 70
   128
 71
     7
 72
     8
 73
    20
 74
    19
  0
VERTEX
  5
2A2
330
282
100
AcDbEntity
  8
CUPULA
100
AcDbFaceRecord
 10
0.0
 20
0.0
 30
0.0
 70
   128
 71
     8
 72
     9
 73
    21
 74
    20
  0
VERTEX
  5
2A3
330
282
100
AcDbEntity
  8
CUPULA
100
AcDbFaceRecord
 10
0.0
 20
0.0
 30
0.0
 70
   128
 71
     9
 72
    10
 73
    22
 74
    21
  0
VERTEX
  5
2A4
330
282
100
AcDbEntity
  8
CUPULA
100
AcDbFaceRecord
 10
0.0
 20
0.0
 30
0.0
 70
   128
 71
    10
 72
    11
 73
    23
 74
    22
  0
VERTEX
  5
2A5
330
282
100
AcDbEntity
  8
CUPULA
100
AcDbFaceRecord
 10
0.0
 20
0.0
 30
0.0
 70
   128
 71
    11
 72
    12
 73
    24
 74
    23
  0
VERTEX
  5
2A6
330
282
100
AcDbEntity
  8
CUPULA
100
AcDbFaceRecord
 10
0.0
 20
0.0
 30
0.0
 70
   128
 71
    12
 72
     1
 73
    13
 74
    24
  0
SEQEND
  5
2A7
330
282
100
AcDbEntity
  8
CUPULA
  0
POLYLINE
  5
2A8
330
1F
100
AcDbEntity
  8
BASE
100
AcDbPolyFaceMesh
 66
     1
 10
0.0
 20
0.0
 30
0.0
 70
    64
 71
    10
 72
     4
  0
VERTEX
  5
2A9
330
2A8
100
AcDbEntity
  8
BASE
100
AcDbVertex
100
AcDbPolyFaceMeshVertex
 10
10.21783065795898
 20
-9.347015380859375
 30
17.86628913879395
 70
   192
  0
VERTEX
  5
2AA
330
2A8
100
AcDbEntity
  8
BASE
100
AcDbVertex
100
AcDbPolyFaceMeshVertex
 10
10.04250812530518
 20
-9.13564682006836
 30
17.86628913879395
 70
   192
  0
VERTEX
  5
2AB
330
2A8
100
AcDbEntity
  8
BASE
100
AcDbVertex
100
AcDbPolyFaceMeshVertex
 10
10.0731143951416
 20
-8.862740516662598
 30
17.86628913879395
 70
   192
  0
VERTEX
  5
2AC
330
2A8
100
AcDbEntity
  8
BASE
100
AcDbVertex
100
AcDbPolyFaceMeshVertex
 10
10.29090213775635
 20
-8.69545841217041
 30
17.86628913879395
 70
   192
  0
VERTEX
  5
2AD
330
2A8
100
AcDbEntity
  8
BASE
100
AcDbVertex
100
AcDbPolyFaceMeshVertex
 10
10.56247043609619
 20
-8.736265182495117
 30
17.86628913879395
 70
   192
  0
VERTEX
  5
2AE
330
2A8
100
AcDbEntity
  8
BASE
100
AcDbVertex
100
AcDbPolyFaceMeshVertex
 10
10.21783065795898
 20
-9.347015380859375
 30
70.25090026855469
 70
   192
  0
VERTEX
  5
2AF
330
2A8
100
AcDbEntity
  8
BASE
100
AcDbVertex
100
AcDbPolyFaceMeshVertex
 10
10.04250812530518
 20
-9.13564682006836
 30
70.25090026855469
 70
   192
  0
VERTEX
  5
2B0
330
2A8
100
AcDbEntity
  8
BASE
100
AcDbVertex
100
AcDbPolyFaceMeshVertex
 10
10.0731143951416
 20
-8.862740516662598
 30
70.25090026855469
 70
   192
  0
VERTEX
  5
2B1
330
2A8
100
AcDbEntity
  8
BASE
100
AcDbVertex
100
AcDbPolyFaceMeshVertex
 10
10.29090213775635
 20
-8.69545841217041
 30
70.25090026855469
 70
   192
  0
VERTEX
  5
2B2
330
2A8
100
AcDbEntity
  8
BASE
100
AcDbVertex
100
AcDbPolyFaceMeshVertex
 10
10.56247043609619
 20
-8.736265182495117
 30
70.25090026855469
 70
   192
  0
VERTEX
  5
2B3
330
2A8
100
AcDbEntity
  8
BASE
100
AcDbFaceRecord
 10
0.0
 20
0.0
 30
0.0
 70
   128
 71
     1
 72
     2
 73
     7
 74
     6
  0
VERTEX
  5
2B4
330
2A8
100
AcDbEntity
  8
BASE
100
AcDbFaceRecord
 10
0.0
 20
0.0
 30
0.0
 70
   128
 71
     2
 72
     3
 73
     8
 74
     7
  0
VERTEX
  5
2B5
330
2A8
100
AcDbEntity
  8
BASE
100
AcDbFaceRecord
 10
0.0
 20
0.0
 30
0.0
 70
   128
 71
     3
 72
     4
 73
     9
 74
     8
  0
VERTEX
  5
2B6
330
2A8
100
AcDbEntity
  8
BASE
100
AcDbFaceRecord
 10
0.0
 20
0.0
 30
0.0
 70
   128
 71
     4
 72
     5
 73
    10
 74
     9
  0
SEQEND
  5
2B7
330
2A8
100
AcDbEntity
  8
BASE
  0
POLYLINE
  5
2B8
330
1F
100
AcDbEntity
  8
BASE
100
AcDbPolyFaceMesh
 66
     1
 10
0.0
 20
0.0
 30
0.0
 70
    64
 71
    10
 72
     4
  0
VERTEX
  5
2B9
330
2B8
100
AcDbEntity
  8
BASE
100
AcDbVertex
100
AcDbPolyFaceMeshVertex
 10
12.17159557342529
 20
-9.347015380859375
 30
17.86628913879395
 70
   192
  0
VERTEX
  5
2BA
330
2B8
100
AcDbEntity
  8
BASE
100
AcDbVertex
100
AcDbPolyFaceMeshVertex
 10
12.34691905975342
 20
-9.13564682006836
 30
17.86628913879395
 70
   192
  0
VERTEX
  5
2BB
330
2B8
100
AcDbEntity
  8
BASE
100
AcDbVertex
100
AcDbPolyFaceMeshVertex
 10
12.31631374359131
 20
-8.862740516662598
 30
17.86628913879395
 70
   192
  0
VERTEX
  5
2BC
330
2B8
100
AcDbEntity
  8
BASE
100
AcDbVertex
100
AcDbPolyFaceMeshVertex
 10
12.09852600097656
 20
-8.69545841217041
 30
17.86628913879395
 70
   192
  0
VERTEX
  5
2BD
330
2B8
100
AcDbEntity
  8
BASE
100
AcDbVertex
100
AcDbPolyFaceMeshVertex
 10
11.82695770263672
 20
-8.736265182495117
 30
17.86628913879395
 70
   192
  0
VERTEX
  5
2BE
330
2B8
100
AcDbEntity
  8
BASE
100
AcDbVertex
100
AcDbPolyFaceMeshVertex
 10
12.17159557342529
 20
-9.347015380859375
 30
70.25090026855469
 70
   192
  0
VERTEX
  5
2BF
330
2B8
100
AcDbEntity
  8
BASE
100
AcDbVertex
100
AcDbPolyFaceMeshVertex
 10
12.34691905975342
 20
-9.13564682006836
 30
70.25090026855469
 70
   192
  0
VERTEX
  5
2C0
330
2B8
100
AcDbEntity
  8
BASE
100
AcDbVertex
100
AcDbPolyFaceMeshVertex
 10
12.31631374359131
 20
-8.862740516662598
 30
70.25090026855469
 70
   192
  0
VERTEX
  5
2C1
330
2B8
100
AcDbEntity
  8
BASE
100
AcDbVertex
100
AcDbPolyFaceMeshVertex
 10
12.09852600097656
 20
-8.69545841217041
 30
70.25090026855469
 70
   192
  0
VERTEX
  5
2C2
330
2B8
100
AcDbEntity
  8
BASE
100
AcDbVertex
100
AcDbPolyFaceMeshVertex
 10
11.82695770263672
 20
-8.736265182495117
 30
70.25090026855469
 70
   192
  0
VERTEX
  5
2C3
330
2B8
100
AcDbEntity
  8
BASE
100
AcDbFaceRecord
 10
0.0
 20
0.0
 30
0.0
 70
   128
 71
     1
 72
     2
 73
     7
 74
     6
  0
VERTEX
  5
2C4
330
2B8
100
AcDbEntity
  8
BASE
100
AcDbFaceRecord
 10
0.0
 20
0.0
 30
0.0
 70
   128
 71
     2
 72
     3
 73
     8
 74
     7
  0
VERTEX
  5
2C5
330
2B8
100
AcDbEntity
  8
BASE
100
AcDbFaceRecord
 10
0.0
 20
0.0
 30
0.0
 70
   128
 71
     3
 72
     4
 73
     9
 74
     8
  0
VERTEX
  5
2C6
330
2B8
100
AcDbEntity
  8
BASE
100
AcDbFaceRecord
 10
0.0
 20
0.0
 30
0.0
 70
   128
 71
     4
 72
     5
 73
    10
 74
     9
  0
SEQEND
  5
2C7
330
2B8
100
AcDbEntity
  8
BASE
  0
POLYLINE
  5
2C8
330
1F
100
AcDbEntity
  8
BASE
100
AcDbPolyFaceMesh
 66
     1
 10
0.0
 20
0.0
 30
0.0
 70
    64
 71
    10
 72
     4
  0
VERTEX
  5
2C9
330
2C8
100
AcDbEntity
  8
BASE
100
AcDbVertex
100
AcDbPolyFaceMeshVertex
 10
11.53998184204102
 20
-10.44100475311279
 30
17.86628913879395
 70
   192
  0
VERTEX
  5
2CA
330
2C8
100
AcDbEntity
  8
BASE
100
AcDbVertex
100
AcDbPolyFaceMeshVertex
 10
11.44459247589111
 20
-10.69852161407471
 30
17.86628913879395
 70
   192
  0
VERTEX
  5
2CB
330
2C8
100
AcDbEntity
  8
BASE
100
AcDbVertex
100
AcDbPolyFaceMeshVertex
 10
11.19294548034668
 20
-10.80847072601318
 30
17.86628913879395
 70
   192
  0
VERTEX
  5
2CC
330
2C8
100
AcDbEntity
  8
BASE
100
AcDbVertex
100
AcDbPolyFaceMeshVertex
 10
10.93918228149414
 20
-10.70350170135498
 30
17.86628913879395
 70
   192
  0
VERTEX
  5
2CD
330
2C8
100
AcDbEntity
  8
BASE
100
AcDbVertex
100
AcDbPolyFaceMeshVertex
 10
10.83873653411865
 20
-10.44791316986084
 30
17.86628913879395
 70
   192
  0
VERTEX
  5
2CE
330
2C8
100
AcDbEntity
  8
BASE
100
AcDbVertex
100
AcDbPolyFaceMeshVertex
 10
11.53998184204102
 20
-10.44100475311279
 30
70.25090026855469
 70
   192
  0
VERTEX
  5
2CF
330
2C8
100
AcDbEntity
  8
BASE
100
AcDbVertex
100
AcDbPolyFaceMeshVertex
 10
11.44459247589111
 20
-10.69852161407471
 30
70.25090026855469
 70
   192
  0
VERTEX
  5
2D0
330
2C8
100
AcDbEntity
  8
BASE
100
AcDbVertex
100
AcDbPolyFaceMeshVertex
 10
11.19294548034668
 20
-10.80847072601318
 30
70.25090026855469
 70
   192
  0
VERTEX
  5
2D1
330
2C8
100
AcDbEntity
  8
BASE
100
AcDbVertex
100
AcDbPolyFaceMeshVertex
 10
10.93918228149414
 20
-10.70350170135498
 30
70.25090026855469
 70
   192
  0
VERTEX
  5
2D2
330
2C8
100
AcDbEntity
  8
BASE
100
AcDbVertex
100
AcDbPolyFaceMeshVertex
 10
10.83873653411865
 20
-10.44791316986084
 30
70.25090026855469
 70
   192
  0
VERTEX
  5
2D3
330
2C8
100
AcDbEntity
  8
BASE
100
AcDbFaceRecord
 10
0.0
 20
0.0
 30
0.0
 70
   128
 71
     1
 72
     2
 73
     7
 74
     6
  0
VERTEX
  5
2D4
330
2C8
100
AcDbEntity
  8
BASE
100
AcDbFaceRecord
 10
0.0
 20
0.0
 30
0.0
 70
   128
 71
     2
 72
     3
 73
     8
 74
     7
  0
VERTEX
  5
2D5
330
2C8
100
AcDbEntity
  8
BASE
100
AcDbFaceRecord
 10
0.0
 20
0.0
 30
0.0
 70
   128
 71
     3
 72
     4
 73
     9
 74
     8
  0
VERTEX
  5
2D6
330
2C8
100
AcDbEntity
  8
BASE
100
AcDbFaceRecord
 10
0.0
 20
0.0
 30
0.0
 70
   128
 71
     4
 72
     5
 73
    10
 74
     9
  0
SEQEND
  5
2D7
330
2C8
100
AcDbEntity
  8
BASE
  0
ENDSEC
  0
SECTION
  2
OBJECTS
  0
DICTIONARY
  5
C
330
0
100
AcDbDictionary
281
     1
  3
ACAD_GROUP
350
D
  3
ACAD_LAYOUT
350
1A
  3
ACAD_MLEADERSTYLE
350
2D9
  3
ACAD_MLINESTYLE
350
17
  3
ACAD_PLOTSETTINGS
350
19
  3
ACAD_PLOTSTYLENAME
350
E
  3
ACAD_TABLESTYLE
350
2D8
  3
ACAD_VISUALSTYLE
350
2A
  0
DICTIONARY
  5
D
102
{ACAD_REACTORS
330
C
102
}
330
C
100
AcDbDictionary
281
     1
  0
DICTIONARY
  5
1A
102
{ACAD_REACTORS
330
C
102
}
330
C
100
AcDbDictionary
281
     1
  3
Layout1
350
1E
  3
Layout2
350
26
  3
Model
350
22
  0
DICTIONARY
  5
2D9
102
{ACAD_REACTORS
330
C
102
}
330
C
100
AcDbDictionary
281
     1
  0
DICTIONARY
  5
17
102
{ACAD_REACTORS
330
C
102
}
330
C
100
AcDbDictionary
281
     1
  3
Standard
350
18
  0
DICTIONARY
  5
19
102
{ACAD_REACTORS
330
C
102
}
330
C
100
AcDbDictionary
281
     1
  0
ACDBDICTIONARYWDFLT
  5
E
102
{ACAD_REACTORS
330
C
102
}
330
C
100
AcDbDictionary
281
     1
  3
Normal
350
F
100
AcDbDictionaryWithDefault
340
F
  0
DICTIONARY
  5
2D8
102
{ACAD_REACTORS
330
C
102
}
330
C
100
AcDbDictionary
281
     1
  0
DICTIONARY
  5
2A
102
{ACAD_REACTORS
330
C
102
}
330
C
100
AcDbDictionary
281
     1
  3
2dWireframe
350
2F
  3
3D Hidden
350
31
  3
3dWireframe
350
30
  3
Basic
350
32
  3
Brighten
350
36
  3
ColorChange
350
3A
  3
Conceptual
350
34
  3
Dim
350
35
  3
Facepattern
350
39
  3
Flat
350
2B
  3
FlatWithEdges
350
2C
  3
Gouraud
350
2D
  3
GouraudWithEdges
350
2E
  3
Linepattern
350
38
  3
Realistic
350
33
  3
Thicken
350
37
  0
LAYOUT
  5
1E
102
{ACAD_REACTORS
330
1A
102
}
330
1A
100
AcDbPlotSettings
  1

  2
none_device
  4

  6

 40
0.0
 41
0.0
 42
0.0
 43
0.0
 44
0.0
 45
0.0
 46
0.0
 47
0.0
 48
0.0
 49
0.0
140
0.0
141
0.0
142
1.0
143
1.0
 70
   688
 72
     0
 73
     0
 74
     5
  7

 75
    16
 76
     0
 77
     2
 78
   300
147
1.0
148
0.0
149
0.0
100
AcDbLayout
  1
Layout1
 70
     1
 71
     1
 10
0.0
 20
0.0
 11
12.0
 21
9.0
 12
0.0
 22
0.0
 32
0.0
 14
1.000000000000000E+20
 24
1.000000000000000E+20
 34
1.000000000000000E+20
 15
-1.000000000000000E+20
 25
-1.000000000000000E+20
 35
-1.000000000000000E+20
146
0.0
 13
0.0
 23
0.0
 33
0.0
 16
1.0
 26
0.0
 36
0.0
 17
0.0
 27
1.0
 37
0.0
 76
     0
330
1B
  0
LAYOUT
  5
26
102
{ACAD_REACTORS
330
1A
102
}
330
1A
100
AcDbPlotSettings
  1

  2
none_device
  4

  6

 40
0.0
 41
0.0
 42
0.0
 43
0.0
 44
0.0
 45
0.0
 46
0.0
 47
0.0
 48
0.0
 49
0.0
140
0.0
141
0.0
142
1.0
143
1.0
 70
   688
 72
     0
 73
     0
 74
     5
  7

 75
    16
 76
     0
 77
     2
 78
   300
147
1.0
148
0.0
149
0.0
100
AcDbLayout
  1
Layout2
 70
     1
 71
     2
 10
0.0
 20
0.0
 11
0.0
 21
0.0
 12
0.0
 22
0.0
 32
0.0
 14
0.0
 24
0.0
 34
0.0
 15
0.0
 25
0.0
 35
0.0
146
0.0
 13
0.0
 23
0.0
 33
0.0
 16
1.0
 26
0.0
 36
0.0
 17
0.0
 27
1.0
 37
0.0
 76
     0
330
23
  0
LAYOUT
  5
22
102
{ACAD_REACTORS
330
1A
102
}
330
1A
100
AcDbPlotSettings
  1

  2
none_device
  4

  6

 40
0.0
 41
0.0
 42
0.0
 43
0.0
 44
0.0
 45
0.0
 46
0.0
 47
0.0
 48
0.0
 49
0.0
140
0.0
141
0.0
142
1.0
143
1.0
 70
  1712
 72
     0
 73
     0
 74
     0
  7

 75
     0
 76
     0
 77
     2
 78
   300
147
1.0
148
0.0
149
0.0
100
AcDbLayout
  1
Model
 70
     1
 71
     0
 10
0.0
 20
0.0
 11
12.0
 21
9.0
 12
0.0
 22
0.0
 32
0.0
 14
0.0
 24
-22.27977180480957
 34
0.0
 15
22.38009834289551
 25
0.0
 35
83.49891662597656
146
0.0
 13
0.0
 23
0.0
 33
0.0
 16
1.0
 26
0.0
 36
0.0
 17
0.0
 27
1.0
 37
0.0
 76
     0
330
1F
331
29
  0
MLINESTYLE
  5
18
102
{ACAD_REACTORS
330
17
102
}
330
17
100
AcDbMlineStyle
  2
Standard
 70
     0
  3

 62
   256
 51
90.0
 52
90.0
 71
     2
 49
0.5
 62
   256
  6
BYLAYER
 49
-0.5
 62
   256
  6
BYLAYER
  0
ACDBPLACEHOLDER
  5
F
102
{ACAD_REACTORS
330
E
102
}
330
E
  0
VISUALSTYLE
  5
2F
102
{ACAD_REACTORS
330
2A
102
}
330
2A
100
AcDbVisualStyle
  2
2dWireframe
 70
     4
 71
     0
 72
     2
 73
     0
 90
        0
 40
-0.6
 41
-30.0
 62
     5
 63
     7
421
 16777215
 74
     1
 91
        4
 64
     7
 65
   257
 75
     1
175
     1
 42
1.0
 92
        0
 66
   257
 43
1.0
 76
     1
 77
     6
 78
     2
 67
     7
 79
     5
170
     0
171
     0
290
     0
174
     0
 93
        1
 44
0.0
173
     0
291
     0
 45
0.0
1001
ACAD
1000
AcDbSavedByObjectVersion
1070
     0
  0
VISUALSTYLE
  5
31
102
{ACAD_REACTORS
330
2A
102
}
330
2A
100
AcDbVisualStyle
  2
3D Hidden
 70
     6
 71
     1
 72
     2
 73
     2
 90
        0
 40
-0.6
 41
-30.0
 62
     5
 63
     7
421
 16777215
 74
     2
 91
        2
 64
     7
 65
   257
 75
     2
175
     1
 42
40.0
 92
        0
 66
   257
 43
1.0
 76
     1
 77
     6
 78
     2
 67
     7
 79
     3
170
     0
171
     0
290
     0
174
     0
 93
        1
 44
0.0
173
     0
291
     0
 45
0.0
1001
ACAD
1000
AcDbSavedByObjectVersion
1070
     0
  0
VISUALSTYLE
  5
30
102
{ACAD_REACTORS
330
2A
102
}
330
2A
100
AcDbVisualStyle
  2
3dWireframe
 70
     5
 71
     0
 72
     2
 73
     0
 90
        0
 40
-0.6
 41
-30.0
 62
     5
 63
     7
421
 16777215
 74
     1
 91
        4
 64
     7
 65
   257
 75
     1
175
     1
 42
1.0
 92
        0
 66
   257
 43
1.0
 76
     1
 77
     6
 78
     2
 67
     7
 79
     5
170
     0
171
     0
290
     0
174
     0
 93
        1
 44
0.0
173
     0
291
     0
 45
0.0
1001
ACAD
1000
AcDbSavedByObjectVersion
1070
     0
  0
VISUALSTYLE
  5
32
102
{ACAD_REACTORS
330
2A
102
}
330
2A
100
AcDbVisualStyle
  2
Basic
 70
     7
 71
     1
 72
     0
 73
     1
 90
        0
 40
-0.6
 41
-30.0
 62
     5
 63
     7
421
 16777215
 74
     0
 91
        4
 64
     7
 65
   257
 75
     1
175
     1
 42
1.0
 92
        8
 66
     7
 43
1.0
 76
     1
 77
     6
 78
     2
 67
     7
 79
     5
170
     0
171
     0
290
     0
174
     0
 93
        1
 44
0.0
173
     0
291
     1
 45
0.0
1001
ACAD
1000
AcDbSavedByObjectVersion
1070
     0
  0
VISUALSTYLE
  5
36
102
{ACAD_REACTORS
330
2A
102
}
330
2A
100
AcDbVisualStyle
  2
Brighten
 70
    12
 71
     2
 72
     2
 73
     0
 90
        0
 40
-0.6
 41
-30.0
 62
     5
 63
     7
421
 16777215
 74
     1
 91
        4
 64
     7
 65
   257
 75
     1
175
     1
 42
1.0
 92
        8
 66
     7
 43
1.0
 76
     1
 77
     6
 78
     2
 67
     7
 79
     5
170
     0
171
     0
290
     0
174
     0
 93
        1
 44
50.0
173
     0
291
     1
 45
0.0
1001
ACAD
1000
AcDbSavedByObjectVersion
1070
     0
  0
VISUALSTYLE
  5
3A
102
{ACAD_REACTORS
330
2A
102
}
330
2A
100
AcDbVisualStyle
  2
ColorChange
 70
    16
 71
     2
 72
     2
 73
     3
 90
        0
 40
-0.6
 41
-30.0
 62
     5
 63
     8
421
  8421504
 74
     1
 91
        4
 64
     7
 65
   257
 75
     1
175
     1
 42
1.0
 92
        8
 66
     8
424
  8421504
 43
1.0
 76
     1
 77
     6
 78
     2
 67
     7
 79
     5
170
     0
171
     0
290
     0
174
     0
 93
        1
 44
0.0
173
     0
291
     1
 45
0.0
1001
ACAD
1000
AcDbSavedByObjectVersion
1070
     0
  0
VISUALSTYLE
  5
34
102
{ACAD_REACTORS
330
2A
102
}
330
2A
100
AcDbVisualStyle
  2
Conceptual
 70
     9
 71
     3
 72
     2
 73
     0
 90
        0
 40
-0.6
 41
-30.0
 62
     5
 63
     7
421
 16777215
 74
     2
 91
        2
 64
     7
 65
   257
 75
     1
175
     1
 42
40.0
 92
        8
 66
     7
 43
1.0
 76
     1
 77
     6
 78
     2
 67
     7
 79
     3
170
     0
171
     0
290
     0
174
     0
 93
        1
 44
0.0
173
     0
291
     0
 45
0.0
1001
ACAD
1000
AcDbSavedByObjectVersion
1070
     0
  0
VISUALSTYLE
  5
35
102
{ACAD_REACTORS
330
2A
102
}
330
2A
100
AcDbVisualStyle
  2
Dim
 70
    11
 71
     2
 72
     2
 73
     0
 90
        0
 40
-0.6
 41
-30.0
 62
     5
 63
     7
421
 16777215
 74
     1
 91
        4
 64
     7
 65
   257
 75
     1
175
     1
 42
1.0
 92
        8
 66
     7
 43
1.0
 76
     1
 77
     6
 78
     2
 67
     7
 79
     5
170
     0
171
     0
290
     0
174
     0
 93
        1
 44
-50.0
173
     0
291
     1
 45
0.0
1001
ACAD
1000
AcDbSavedByObjectVersion
1070
     0
  0
VISUALSTYLE
  5
39
102
{ACAD_REACTORS
330
2A
102
}
330
2A
100
AcDbVisualStyle
  2
Facepattern
 70
    15
 71
     2
 72
     2
 73
     0
 90
        0
 40
-0.6
 41
-30.0
 62
     5
 63
     7
421
 16777215
 74
     1
 91
        4
 64
     7
 65
   257
 75
     1
175
     1
 42
1.0
 92
        8
 66
     7
 43
1.0
 76
     1
 77
     6
 78
     2
 67
     7
 79
     5
170
     0
171
     0
290
     0
174
     0
 93
        1
 44
0.0
173
     0
291
     1
 45
0.0
1001
ACAD
1000
AcDbSavedByObjectVersion
1070
     0
  0
VISUALSTYLE
  5
2B
102
{ACAD_REACTORS
330
2A
102
}
330
2A
100
AcDbVisualStyle
  2
Flat
 70
     0
 71
     2
 72
     1
 73
     1
 90
        2
 40
-0.6
 41
30.0
 62
     5
 63
     7
421
 16777215
 74
     0
 91
        4
 64
     7
 65
   257
 75
     1
175
     1
 42
1.0
 92
        8
 66
     7
 43
1.0
 76
     1
 77
     6
 78
     2
 67
     7
 79
     5
170
     0
171
     0
290
     0
174
     0
 93
       13
 44
0.0
173
     0
291
     1
 45
0.0
1001
ACAD
1000
AcDbSavedByObjectVersion
1070
     0
  0
VISUALSTYLE
  5
2C
102
{ACAD_REACTORS
330
2A
102
}
330
2A
100
AcDbVisualStyle
  2
FlatWithEdges
 70
     1
 71
     2
 72
     1
 73
     1
 90
        2
 40
-0.6
 41
30.0
 62
     5
 63
     7
421
 16777215
 74
     1
 91
        4
 64
     7
 65
   257
 75
     1
175
     1
 42
1.0
 92
        0
 66
   257
 43
1.0
 76
     1
 77
     6
 78
     2
 67
     7
 79
     5
170
     0
171
     0
290
     0
174
     0
 93
       13
 44
0.0
173
     0
291
     1
 45
0.0
1001
ACAD
1000
AcDbSavedByObjectVersion
1070
     0
  0
VISUALSTYLE
  5
2D
102
{ACAD_REACTORS
330
2A
102
}
330
2A
100
AcDbVisualStyle
  2
Gouraud
 70
     2
 71
     2
 72
     2
 73
     1
 90
        2
 40
-0.6
 41
30.0
 62
     5
 63
     7
421
 16777215
 74
     0
 91
        4
 64
     7
 65
   257
 75
     1
175
     1
 42
1.0
 92
        0
 66
     7
 43
1.0
 76
     1
 77
     6
 78
     2
 67
     7
 79
     5
170
     0
171
     0
290
     0
174
     0
 93
       13
 44
0.0
173
     0
291
     1
 45
0.0
1001
ACAD
1000
AcDbSavedByObjectVersion
1070
     0
  0
VISUALSTYLE
  5
2E
102
{ACAD_REACTORS
330
2A
102
}
330
2A
100
AcDbVisualStyle
  2
GouraudWithEdges
 70
     3
 71
     2
 72
     2
 73
     1
 90
        2
 40
-0.6
 41
30.0
 62
     5
 63
     7
421
 16777215
 74
     1
 91
        4
 64
     7
 65
   257
 75
     1
175
     1
 42
1.0
 92
        0
 66
   257
 43
1.0
 76
     1
 77
     6
 78
     2
 67
     7
 79
     5
170
     0
171
     0
290
     0
174
     0
 93
       13
 44
0.0
173
     0
291
     1
 45
0.0
1001
ACAD
1000
AcDbSavedByObjectVersion
1070
     0
  0
VISUALSTYLE
  5
38
102
{ACAD_REACTORS
330
2A
102
}
330
2A
100
AcDbVisualStyle
  2
Linepattern
 70
    14
 71
     2
 72
     2
 73
     0
 90
        0
 40
-0.6
 41
-30.0
 62
     5
 63
     7
421
 16777215
 74
     1
 91
        4
 64
     7
 65
   257
 75
     7
175
     7
 42
1.0
 92
        8
 66
     7
 43
1.0
 76
     1
 77
     6
 78
     2
 67
     7
 79
     5
170
     0
171
     0
290
     0
174
     0
 93
        1
 44
0.0
173
     0
291
     1
 45
0.0
1001
ACAD
1000
AcDbSavedByObjectVersion
1070
     0
  0
VISUALSTYLE
  5
33
102
{ACAD_REACTORS
330
2A
102
}
330
2A
100
AcDbVisualStyle
  2
Realistic
 70
     8
 71
     2
 72
     2
 73
     0
 90
        0
 40
-0.6
 41
-30.0
 62
     5
 63
     7
421
 16777215
 74
     1
 91
        0
 64
     7
 65
   257
 75
     1
175
     1
 42
1.0
 92
        8
 66
     8
424
  7895160
 43
1.0
 76
     1
 77
     6
 78
     2
 67
     7
 79
     5
170
     0
171
     0
290
     0
174
     0
 93
       13
 44
0.0
173
     0
291
     0
 45
0.0
1001
ACAD
1000
AcDbSavedByObjectVersion
1070
     0
  0
VISUALSTYLE
  5
37
102
{ACAD_REACTORS
330
2A
102
}
330
2A
100
AcDbVisualStyle
  2
Thicken
 70
    13
 71
     2
 72
     2
 73
     0
 90
        0
 40
-0.6
 41
-30.0
 62
     5
 63
     7
421
 16777215
 74
     1
 91
        4
 64
     7
 65
   257
 75
     1
175
     1
 42
1.0
 92
       12
 66
     7
 43
1.0
 76
     1
 77
     6
 78
     2
 67
     7
 79
     5
170
     0
171
     0
290
     0
174
     0
 93
        1
 44
0.0
173
     0
291
     1
 45
0.0
1001
ACAD
1000
AcDbSavedByObjectVersion
1070
     0
  0
ENDSEC
  0
EOF
