  0
SECTION
  2
HEADER
  9
$ACADVER
  1
AC1018
  9
$ACADMAINTVER
 70
     0
  9
$DWGCODEPAGE
  3
ANSI_1252
  9
$INSBASE
 10
0.0
 20
0.0
 30
0.0
  9
$EXTMIN
 10
-10.73884000864372
 20
0.0000030700665128
 30
0.0
  9
$EXTMAX
 10
13.23058878308976
 20
25.24824240120064
 30
0.0
  9
$LIMMIN
 10
0.0
 20
0.0
  9
$LIMMAX
 10
12.0
 20
9.0
  9
$ORTHOMODE
 70
     0
  9
$REGENMODE
 70
     1
  9
$FILLMODE
 70
     1
  9
$QTEXTMODE
 70
     0
  9
$MIRRTEXT
 70
     1
  9
$LTSCALE
 40
0.0393700787401575
  9
$ATTMODE
 70
     1
  9
$TEXTSIZE
 40
0.2
  9
$TRACEWID
 40
0.05
  9
$TEXTSTYLE
  7
Standard
  9
$CLAYER
  8
0
  9
$CELTYPE
  6
ByLayer
  9
$CECOLOR
 62
   256
  9
$CELTSCALE
 40
1.0
  9
$DISPSILH
 70
     0
  9
$DIMSCALE
 40
1.0
  9
$DIMASZ
 40
0.18
  9
$DIMEXO
 40
0.0625
  9
$DIMDLI
 40
0.38
  9
$DIMRND
 40
0.0
  9
$DIMDLE
 40
0.0
  9
$DIMEXE
 40
0.18
  9
$DIMTP
 40
0.0
  9
$DIMTM
 40
0.0
  9
$DIMTXT
 40
0.18
  9
$DIMCEN
 40
0.09
  9
$DIMTSZ
 40
0.0
  9
$DIMTOL
 70
     0
  9
$DIMLIM
 70
     0
  9
$DIMTIH
 70
     1
  9
$DIMTOH
 70
     1
  9
$DIMSE1
 70
     0
  9
$DIMSE2
 70
     0
  9
$DIMTAD
 70
     0
  9
$DIMZIN
 70
     0
  9
$DIMBLK
  1

  9
$DIMASO
 70
     1
  9
$DIMSHO
 70
     1
  9
$DIMPOST
  1

  9
$DIMAPOST
  1

  9
$DIMALT
 70
     0
  9
$DIMALTD
 70
     2
  9
$DIMALTF
 40
25.4
  9
$DIMLFAC
 40
1.0
  9
$DIMTOFL
 70
     0
  9
$DIMTVP
 40
0.0
  9
$DIMTIX
 70
     0
  9
$DIMSOXD
 70
     0
  9
$DIMSAH
 70
     0
  9
$DIMBLK1
  1

  9
$DIMBLK2
  1

  9
$DIMSTYLE
  2
Standard
  9
$DIMCLRD
 70
     0
  9
$DIMCLRE
 70
     0
  9
$DIMCLRT
 70
     0
  9
$DIMTFAC
 40
1.0
  9
$DIMGAP
 40
0.09
  9
$DIMJUST
 70
     0
  9
$DIMSD1
 70
     0
  9
$DIMSD2
 70
     0
  9
$DIMTOLJ
 70
     1
  9
$DIMTZIN
 70
     0
  9
$DIMALTZ
 70
     0
  9
$DIMALTTZ
 70
     0
  9
$DIMUPT
 70
     0
  9
$DIMDEC
 70
     4
  9
$DIMTDEC
 70
     4
  9
$DIMALTU
 70
     2
  9
$DIMALTTD
 70
     2
  9
$DIMTXSTY
  7
Standard
  9
$DIMAUNIT
 70
     0
  9
$DIMADEC
 70
     0
  9
$DIMALTRND
 40
0.0
  9
$DIMAZIN
 70
     0
  9
$DIMDSEP
 70
    46
  9
$DIMATFIT
 70
     3
  9
$DIMFRAC
 70
     0
  9
$DIMLDRBLK
  1

  9
$DIMLUNIT
 70
     2
  9
$DIMLWD
 70
    -2
  9
$DIMLWE
 70
    -2
  9
$DIMTMOVE
 70
     2
  9
$LUNITS
 70
     2
  9
$LUPREC
 70
     3
  9
$SKETCHINC
 40
0.1
  9
$FILLETRAD
 40
0.5
  9
$AUNITS
 70
     0
  9
$AUPREC
 70
     0
  9
$MENU
  1
.
  9
$ELEVATION
 40
0.0
  9
$PELEVATION
 40
0.0
  9
$THICKNESS
 40
0.0
  9
$LIMCHECK
 70
     0
  9
$CHAMFERA
 40
0.5
  9
$CHAMFERB
 40
0.5
  9
$CHAMFERC
 40
1.0
  9
$CHAMFERD
 40
0.0
  9
$SKPOLY
 70
     0
  9
$TDCREATE
 40
2459811.493039757
  9
$TDUCREATE
 40
2459811.618039757
  9
$TDUPDATE
 40
2459811.493039769
  9
$TDUUPDATE
 40
2459811.618039769
  9
$TDINDWG
 40
0.0000000116
  9
$TDUSRTIMER
 40
0.0000000116
  9
$USRTIMER
 70
     1
  9
$ANGBASE
 50
0.0
  9
$ANGDIR
 70
     0
  9
$PDMODE
 70
     0
  9
$PDSIZE
 40
0.0
  9
$PLINEWID
 40
0.0
  9
$SPLFRAME
 70
     0
  9
$SPLINETYPE
 70
     6
  9
$SPLINESEGS
 70
     8
  9
$HANDSEED
  5
80
  9
$SURFTAB1
 70
     6
  9
$SURFTAB2
 70
     6
  9
$SURFTYPE
 70
     6
  9
$SURFU
 70
     6
  9
$SURFV
 70
     6
  9
$UCSBASE
  2

  9
$UCSNAME
  2

  9
$UCSORG
 10
0.0
 20
0.0
 30
0.0
  9
$UCSXDIR
 10
1.0
 20
0.0
 30
0.0
  9
$UCSYDIR
 10
0.0
 20
1.0
 30
0.0
  9
$UCSORTHOREF
  2

  9
$UCSORTHOVIEW
 70
     0
  9
$UCSORGTOP
 10
0.0
 20
0.0
 30
0.0
  9
$UCSORGBOTTOM
 10
0.0
 20
0.0
 30
0.0
  9
$UCSORGLEFT
 10
0.0
 20
0.0
 30
0.0
  9
$UCSORGRIGHT
 10
0.0
 20
0.0
 30
0.0
  9
$UCSORGFRONT
 10
0.0
 20
0.0
 30
0.0
  9
$UCSORGBACK
 10
0.0
 20
0.0
 30
0.0
  9
$PUCSBASE
  2

  9
$PUCSNAME
  2

  9
$PUCSORG
 10
0.0
 20
0.0
 30
0.0
  9
$PUCSXDIR
 10
1.0
 20
0.0
 30
0.0
  9
$PUCSYDIR
 10
0.0
 20
1.0
 30
0.0
  9
$PUCSORTHOREF
  2

  9
$PUCSORTHOVIEW
 70
     0
  9
$PUCSORGTOP
 10
0.0
 20
0.0
 30
0.0
  9
$PUCSORGBOTTOM
 10
0.0
 20
0.0
 30
0.0
  9
$PUCSORGLEFT
 10
0.0
 20
0.0
 30
0.0
  9
$PUCSORGRIGHT
 10
0.0
 20
0.0
 30
0.0
  9
$PUCSORGFRONT
 10
0.0
 20
0.0
 30
0.0
  9
$PUCSORGBACK
 10
0.0
 20
0.0
 30
0.0
  9
$USERI1
 70
     0
  9
$USERI2
 70
     0
  9
$USERI3
 70
     0
  9
$USERI4
 70
     0
  9
$USERI5
 70
     0
  9
$USERR1
 40
0.0
  9
$USERR2
 40
0.0
  9
$USERR3
 40
0.0
  9
$USERR4
 40
0.0
  9
$USERR5
 40
0.0
  9
$WORLDVIEW
 70
     1
  9
$SHADEDGE
 70
     3
  9
$SHADEDIF
 70
    70
  9
$TILEMODE
 70
     1
  9
$MAXACTVP
 70
    64
  9
$PINSBASE
 10
0.0
 20
0.0
 30
0.0
  9
$PLIMCHECK
 70
     0
  9
$PEXTMIN
 10
1.000000000000000E+20
 20
1.000000000000000E+20
 30
1.000000000000000E+20
  9
$PEXTMAX
 10
-1.000000000000000E+20
 20
-1.000000000000000E+20
 30
-1.000000000000000E+20
  9
$PLIMMIN
 10
0.0
 20
0.0
  9
$PLIMMAX
 10
12.0
 20
9.0
  9
$UNITMODE
 70
     0
  9
$VISRETAIN
 70
     1
  9
$PLINEGEN
 70
     0
  9
$PSLTSCALE
 70
     1
  9
$TREEDEPTH
 70
  3020
  9
$CMLSTYLE
  2
Standard
  9
$CMLJUST
 70
     0
  9
$CMLSCALE
 40
1.0
  9
$PROXYGRAPHICS
 70
     1
  9
$MEASUREMENT
 70
     0
  9
$CELWEIGHT
370
    -1
  9
$ENDCAPS
280
     0
  9
$JOINSTYLE
280
     0
  9
$LWDISPLAY
290
     0
  9
$INSUNITS
 70
     1
  9
$HYPERLINKBASE
  1

  9
$STYLESHEET
  1

  9
$XEDIT
290
     1
  9
$CEPSNTYPE
380
     0
  9
$PSTYLEMODE
290
     1
  9
$FINGERPRINTGUID
  2
{B087F16D-B0F1-49D0-8D9F-005B708242CC}
  9
$VERSIONGUID
  2
{FAEB1C32-E019-11D5-929B-00C0DF256EC4}
  9
$EXTNAMES
290
     1
  9
$PSVPSCALE
 40
0.0
  9
$OLESTARTUP
290
     0
  9
$SORTENTS
280
   127
  9
$INDEXCTL
280
     0
  9
$HIDETEXT
280
     1
  9
$XCLIPFRAME
290
     0
  9
$HALOGAP
280
     0
  9
$OBSCOLOR
 70
   257
  9
$OBSLTYPE
280
     0
  9
$INTERSECTIONDISPLAY
280
     0
  9
$INTERSECTIONCOLOR
 70
   257
  9
$DIMASSOC
280
     2
  9
$PROJECTNAME
  1

  0
ENDSEC
  0
SECTION
  2
CLASSES
  0
CLASS
  1
ACDBDICTIONARYWDFLT
  2
AcDbDictionaryWithDefault
  3
ObjectDBX Classes
 90
        0
 91
        4
280
     0
281
     0
  0
CLASS
  1
VISUALSTYLE
  2
AcDbVisualStyle
  3
ObjectDBX Classes
 90
     4095
 91
        4
280
     0
281
     0
  0
ENDSEC
  0
SECTION
  2
TABLES
  0
TABLE
  2
VPORT
  5
8
330
0
100
AcDbSymbolTable
 70
     1
  0
VPORT
  5
29
330
8
100
AcDbSymbolTableRecord
100
AcDbViewportTableRecord
  2
*Active
 70
     0
 10
0.0
 20
0.0
 11
1.0
 21
1.0
 12
1.245874387223019
 22
12.62412273563358
 13
0.0
 23
0.0
 14
0.5
 24
0.5
 15
0.5
 25
0.5
 16
0.0
 26
0.0
 36
1.0
 17
0.0
 27
0.0
 37
0.0
 40
25.75320411775681
 41
0.9493505062816905
 42
50.0
 43
0.0
 44
0.0
 50
0.0
 51
0.0
 71
     0
 72
   100
 73
     1
 74
     3
 75
     0
 76
     0
 77
     0
 78
     0
281
     0
 65
     1
110
0.0
120
0.0
130
0.0
111
1.0
121
0.0
131
0.0
112
0.0
122
1.0
132
0.0
 79
     0
146
0.0
  0
ENDTAB
  0
TABLE
  2
LTYPE
  5
5
330
0
100
AcDbSymbolTable
 70
     1
  0
LTYPE
  5
14
330
5
100
AcDbSymbolTableRecord
100
AcDbLinetypeTableRecord
  2
ByBlock
 70
     0
  3

 72
    65
 73
     0
 40
0.0
  0
LTYPE
  5
15
330
5
100
AcDbSymbolTableRecord
100
AcDbLinetypeTableRecord
  2
ByLayer
 70
     0
  3

 72
    65
 73
     0
 40
0.0
  0
LTYPE
  5
16
330
5
100
AcDbSymbolTableRecord
100
AcDbLinetypeTableRecord
  2
Continuous
 70
     0
  3
Solid line
 72
    65
 73
     0
 40
0.0
  0
ENDTAB
  0
TABLE
  2
LAYER
  5
2
330
0
100
AcDbSymbolTable
 70
     2
  0
LAYER
  5
10
330
2
100
AcDbSymbolTableRecord
100
AcDbLayerTableRecord
  2
0
 70
     0
 62
     7
  6
Continuous
370
    -3
390
F
  0
LAYER
  5
3B
330
2
100
AcDbSymbolTableRecord
100
AcDbLayerTableRecord
  2
Make2D visible lines
 70
     0
 62
     7
  6
Continuous
370
    -3
390
F
  0
ENDTAB
  0
TABLE
  2
STYLE
  5
3
330
0
100
AcDbSymbolTable
 70
     1
  0
STYLE
  5
11
330
3
100
AcDbSymbolTableRecord
100
AcDbTextStyleTableRecord
  2
Standard
 70
     0
 40
0.0
 41
1.0
 50
0.0
 71
     0
 42
0.2
  3
txt
  4

  0
ENDTAB
  0
TABLE
  2
VIEW
  5
6
330
0
100
AcDbSymbolTable
 70
     0
  0
ENDTAB
  0
TABLE
  2
UCS
  5
7
330
0
100
AcDbSymbolTable
 70
     0
  0
ENDTAB
  0
TABLE
  2
APPID
  5
9
330
0
100
AcDbSymbolTable
 70
     1
  0
APPID
  5
12
330
9
100
AcDbSymbolTableRecord
100
AcDbRegAppTableRecord
  2
ACAD
 70
     0
  0
ENDTAB
  0
TABLE
  2
DIMSTYLE
  5
A
330
0
100
AcDbSymbolTable
 70
     1
100
AcDbDimStyleTable
  0
DIMSTYLE
105
27
330
A
100
AcDbSymbolTableRecord
100
AcDbDimStyleTableRecord
  2
Standard
 70
     0
340
11
  0
ENDTAB
  0
TABLE
  2
BLOCK_RECORD
  5
1
330
0
100
AcDbSymbolTable
 70
     1
  0
BLOCK_RECORD
  5
1F
330
1
100
AcDbSymbolTableRecord
100
AcDbBlockTableRecord
  2
*Model_Space
340
22
  0
BLOCK_RECORD
  5
1B
330
1
100
AcDbSymbolTableRecord
100
AcDbBlockTableRecord
  2
*Paper_Space
340
1E
  0
BLOCK_RECORD
  5
23
330
1
100
AcDbSymbolTableRecord
100
AcDbBlockTableRecord
  2
*Paper_Space0
340
26
  0
ENDTAB
  0
ENDSEC
  0
SECTION
  2
BLOCKS
  0
BLOCK
  5
20
330
1F
100
AcDbEntity
  8
0
100
AcDbBlockBegin
  2
*Model_Space
 70
     0
 10
0.0
 20
0.0
 30
0.0
  3
*Model_Space
  1

  0
ENDBLK
  5
21
330
1F
100
AcDbEntity
  8
0
100
AcDbBlockEnd
  0
BLOCK
  5
1C
330
1B
100
AcDbEntity
 67
     1
  8
0
100
AcDbBlockBegin
  2
*Paper_Space
 70
     0
 10
0.0
 20
0.0
 30
0.0
  3
*Paper_Space
  1

  0
ENDBLK
  5
1D
330
1B
100
AcDbEntity
 67
     1
  8
0
100
AcDbBlockEnd
  0
BLOCK
  5
24
330
23
100
AcDbEntity
  8
0
100
AcDbBlockBegin
  2
*Paper_Space0
 70
     0
 10
0.0
 20
0.0
 30
0.0
  3
*Paper_Space0
  1

  0
ENDBLK
  5
25
330
23
100
AcDbEntity
  8
0
100
AcDbBlockEnd
  0
ENDSEC
  0
SECTION
  2
ENTITIES
  0
ARC
  5
3C
330
1F
100
AcDbEntity
  8
Make2D visible lines
100
AcDbCircle
 10
-8.11639756136874
 20
15.64730677386137
 30
0.0
 40
2.126593491856108
100
AcDbArc
 50
167.9716748870049
 51
180.0
  0
SPLINE
  5
3D
330
1F
100
AcDbEntity
  8
Make2D visible lines
100
AcDbSpline
210
0.0
220
0.0
230
1.0
 70
     8
 71
     3
 72
    19
 73
    15
 74
     0
 42
0.0000000001
 43
0.0000000001
 40
-77.68752199260912
 40
-77.68752199260912
 40
-77.68752199260912
 40
-77.68752199260912
 40
-77.60349834388101
 40
-76.6865093968816
 40
-74.03107476219404
 40
-73.12947707467833
 40
-72.29732408063575
 40
-70.286968990937
 40
-66.9590292377598
 40
-65.95430211284194
 40
-65.07491654465382
 40
-57.61738887170216
 40
-48.41006071191635
 40
-39.12724993577571
 40
-39.12724993577571
 40
-39.12724993577571
 40
-39.12724993577571
 10
-10.19630104798331
 20
16.09047871111972
 30
0.0
 10
-10.19294418355966
 20
16.10098340778605
 30
0.0
 10
-10.15177327929981
 20
16.22575804801685
 30
0.0
 10
-9.962567153176645
 20
16.66754389115245
 30
0.0
 10
-9.673562582702427
 20
17.17944271978213
 30
0.0
 10
-9.370174416254232
 20
17.6691144264637
 30
0.0
 10
-9.094025790685889
 20
18.07554416437983
 30
0.0
 10
-8.633912676698287
 20
18.74188303271136
 30
0.0
 10
-8.158836599217265
 20
19.42545109347837
 30
0.0
 10
-7.772110070536836
 20
19.98958883372839
 30
0.0
 10
-7.066869415717052
 20
20.9926360453482
 30
0.0
 10
-5.444247081254481
 20
22.65796931313981
 30
0.0
 10
-2.399074905029466
 20
24.28634886015016
 30
0.0
 10
0.0275697660347728
 20
24.68218796293894
 30
0.0
 10
1.245874387222944
 20
24.6810332420434
 30
0.0
  0
SPLINE
  5
3E
330
1F
100
AcDbEntity
  8
Make2D visible lines
100
AcDbSpline
210
0.0
220
0.0
230
1.0
 70
     8
 71
     3
 72
    19
 73
    15
 74
     0
 42
0.0000000001
 43
0.0000000001
 40
39.12724993577571
 40
39.12724993577571
 40
39.12724993577571
 40
39.12724993577571
 40
48.41006071191635
 40
57.61738887170216
 40
65.07491654465382
 40
65.95430211284194
 40
66.9590292377598
 40
70.286968990937
 40
72.29732408063575
 40
73.12947707467833
 40
74.03107476219404
 40
76.6865093968816
 40
77.60349834388101
 40
77.68752199260912
 40
77.68752199260912
 40
77.68752199260912
 40
77.68752199260912
 10
1.245874387222944
 20
24.6810332420434
 30
0.0
 10
2.464179008411116
 20
24.68218796293894
 30
0.0
 10
4.890823679475354
 20
24.28634886015016
 30
0.0
 10
7.93599585570037
 20
22.65796931313981
 30
0.0
 10
9.55861819016294
 20
20.9926360453482
 30
0.0
 10
10.26385884498272
 20
19.98958883372839
 30
0.0
 10
10.65058537366315
 20
19.42545109347837
 30
0.0
 10
11.12566145114418
 20
18.74188303271136
 30
0.0
 10
11.58577456513178
 20
18.07554416437983
 30
0.0
 10
11.86192319070012
 20
17.6691144264637
 30
0.0
 10
12.16531135714832
 20
17.17944271978213
 30
0.0
 10
12.45431592762253
 20
16.66754389115245
 30
0.0
 10
12.64352205374569
 20
16.22575804801685
 30
0.0
 10
12.68469295800555
 20
16.10098340778605
 30
0.0
 10
12.6880498224292
 20
16.09047871111972
 30
0.0
  0
ARC
  5
3F
330
1F
100
AcDbEntity
  8
Make2D visible lines
100
AcDbCircle
 10
10.60814633581463
 20
15.64730677386137
 30
0.0
 40
2.126593491856108
100
AcDbArc
 50
0.0
 51
12.02832511299508
  0
SPLINE
  5
40
330
1F
100
AcDbEntity
  8
Make2D visible lines
100
AcDbSpline
210
0.0
220
0.0
230
1.0
 70
    12
 71
     2
 72
     8
 73
     5
 74
     0
 42
0.0000000001
 43
0.0000000001
 40
-6.283185307179586
 40
-6.283185307179586
 40
-6.283185307179586
 40
-4.71238898038469
 40
-4.71238898038469
 40
-4.710160881405424
 40
-4.710160881405424
 40
-4.710160881405424
 10
-8.630621431016841
 20
10.1970325605705
 30
0.0
 41
1.0
 10
-8.62297574493251
 20
20.38615240121999
 30
0.0
 41
0.7071067811865476
 10
1.226109007290936
 20
20.37824275136551
 30
0.0
 41
1.0
 10
1.235991714905195
 20
20.37823481471365
 30
0.0
 41
0.9995845450675305
 10
1.245874387222942
 20
20.37820636048655
 30
0.0
 41
0.9991702687407085
  0
SPLINE
  5
41
330
1F
100
AcDbEntity
  8
Make2D visible lines
100
AcDbSpline
210
0.0
220
0.0
230
1.0
 70
    12
 71
     2
 72
     8
 73
     5
 74
     0
 42
0.0000000001
 43
0.0000000001
 40
4.710160881405424
 40
4.710160881405424
 40
4.710160881405424
 40
4.71238898038469
 40
4.71238898038469
 40
6.283185307179586
 40
6.283185307179586
 40
6.283185307179586
 10
1.245874387222942
 20
20.37820636048655
 30
0.0
 41
0.9991702687407085
 10
1.255757059540695
 20
20.37823481471365
 30
0.0
 41
0.9995845450675305
 10
1.265639767154953
 20
20.37824275136551
 30
0.0
 41
1.0
 10
11.1147245193784
 20
20.38615240121999
 30
0.0
 41
0.7071067811865476
 10
11.12237020546273
 20
10.1970325605705
 30
0.0
 41
1.0
  0
SPLINE
  5
42
330
1F
100
AcDbEntity
  8
Make2D visible lines
100
AcDbSpline
210
0.0
220
0.0
230
1.0
 70
    12
 71
     2
 72
     8
 73
     5
 74
     0
 42
0.0000000001
 43
0.0000000001
 40
0.0
 40
0.0
 40
0.0
 40
1.570796326794896
 40
1.570796326794896
 40
1.574746911922178
 40
1.574746911922178
 40
1.574746911922178
 10
11.12237020546273
 20
10.1970325605705
 30
0.0
 41
1.0
 10
11.13001589154706
 20
0.0079127199209989
 30
0.0
 41
0.7071067811865476
 10
1.280931139323617
 20
0.0000030700665128
 30
0.0
 41
1.0
 10
1.263402731971548
 20
-0.0000110067302809
 30
0.0
 41
0.999263367519781
 10
1.245874387222951
 20
0.000039460945472
 30
0.0
 41
0.9985304403312932
  0
SPLINE
  5
43
330
1F
100
AcDbEntity
  8
Make2D visible lines
100
AcDbSpline
210
0.0
220
0.0
230
1.0
 70
    12
 71
     2
 72
     8
 73
     5
 74
     0
 42
0.0000000001
 43
0.0000000001
 40
-1.574746911922178
 40
-1.574746911922178
 40
-1.574746911922178
 40
-1.570796326794896
 40
-1.570796326794896
 40
0.0
 40
0.0
 40
0.0
 10
1.24587438722294
 20
0.000039460945472
 30
0.0
 41
0.9985304403312932
 10
1.228346042474338
 20
-0.0000110067302809
 30
0.0
 41
0.999263367519781
 10
1.210817635122271
 20
0.0000030700665128
 30
0.0
 41
1.0
 10
-8.638267117101174
 20
0.0079127199209989
 30
0.0
 41
0.7071067811865476
 10
-8.630621431016841
 20
10.1970325605705
 30
0.0
 41
1.0
  0
SPLINE
  5
44
330
1F
100
AcDbEntity
  8
Make2D visible lines
100
AcDbSpline
210
0.0
220
0.0
230
1.0
 70
     8
 71
     3
 72
    15
 73
    11
 74
     0
 42
0.0000000001
 43
0.0000000001
 40
-0.1165083001863362
 40
-0.1165083001863362
 40
-0.1165083001863362
 40
-0.1165083001863362
 40
0.0000000000000001
 40
0.0000000000000001
 40
0.0000000000000001
 40
0.400966947361365
 40
0.7562857043586728
 40
1.429631665205895
 40
2.103544129292643
 40
2.816932670144126
 40
2.816932670144126
 40
2.816932670144126
 40
2.816932670144126
 10
12.27472668649439
 20
14.90213516885918
 30
0.0
 10
12.28922794792199
 20
14.89218754529048
 30
0.0
 10
12.30372920934966
 20
14.8906825454763
 30
0.0
 10
12.31823047077725
 20
14.88495623378485
 30
0.0
 10
12.36813701407262
 20
14.86847734833698
 30
0.0
 10
12.46485385208969
 20
14.84390577762689
 30
0.0
 10
12.65215152199265
 20
14.82864184466419
 30
0.0
 10
12.87593351339442
 20
14.87805870291828
 30
0.0
 10
13.09115540892424
 20
15.0539072495434
 30
0.0
 10
13.16920915607077
 20
15.22309216654206
 30
0.0
 10
13.19461465078897
 20
15.31284943172516
 30
0.0
  0
SPLINE
  5
45
330
1F
100
AcDbEntity
  8
Make2D visible lines
100
AcDbSpline
210
0.0
220
0.0
230
1.0
 70
    12
 71
     3
 72
    11
 73
     7
 74
     0
 42
0.0000000001
 43
0.0000000001
 40
0.0
 40
0.0
 40
0.0
 40
0.0
 40
0.9434516072362373
 40
1.513581882508038
 40
2.083639190051232
 40
3.223996138200893
 40
3.223996138200893
 40
3.223996138200893
 40
3.223996138200893
 10
13.19461465078897
 20
15.31284943172516
 30
0.0
 41
1.0
 10
13.20726594037252
 20
15.3574650909489
 30
0.0
 41
1.0
 10
13.21925846721635
 20
15.42509701846719
 30
0.0
 41
1.0
 10
13.2273247011337
 20
15.51359574156333
 30
0.0
 41
1.0
 10
13.23144949942703
 20
15.60785824227094
 30
0.0
 41
1.0
 10
13.23116146705125
 20
15.67600526977739
 30
0.0
 41
1.0
 10
13.23058878308961
 20
15.71988746944041
 30
0.0
 41
1.0
  0
ARC
  5
46
330
1F
100
AcDbEntity
  8
Make2D visible lines
100
AcDbCircle
 10
0.4672533646087334
 20
15.34048344574577
 30
0.0
 40
12.76897327187445
100
AcDbArc
 50
1.702677947199179
 51
4.539368837550267
  0
SPLINE
  5
47
330
1F
100
AcDbEntity
  8
Make2D visible lines
100
AcDbSpline
210
0.0
220
0.0
230
1.0
 70
     8
 71
     3
 72
    19
 73
    15
 74
     0
 42
0.0000000001
 43
0.0000000001
 40
0.4062410910773382
 40
0.4062410910773382
 40
0.4062410910773382
 40
0.4062410910773382
 40
0.590606699446772
 40
1.528420170455697
 40
4.282491888809361
 40
6.011587697510116
 40
6.207381223945343
 40
6.856879156663426
 40
11.47442991359358
 40
12.2548333877044
 40
13.42618965661133
 40
21.4154046983477
 40
30.95498129740862
 40
40.56948547357128
 40
40.56948547357128
 40
40.56948547357128
 40
40.56948547357128
 10
13.19617276679425
 20
16.35107202202652
 30
0.0
 10
13.18967561842261
 20
16.37437951360235
 30
0.0
 10
13.14594835740531
 20
16.51512307353432
 30
0.0
 10
12.94600561917241
 20
16.98359258284487
 30
0.0
 10
12.59601742385714
 20
17.6043410926883
 30
0.0
 10
12.26409817873923
 20
18.12069136018928
 30
0.0
 10
12.07148422612043
 20
18.39844035090618
 30
0.0
 10
11.66381373958669
 20
18.98809912661342
 30
0.0
 10
11.21251981506814
 20
19.64097815922168
 30
0.0
 10
10.7229658752396
 20
20.3505701553679
 30
0.0
 10
9.97052008727741
 20
21.41676542502481
 30
0.0
 10
8.219302729409415
 20
23.17206694893328
 30
0.0
 10
5.022809180815331
 20
24.84748332753492
 30
0.0
 10
2.507734626774764
 20
25.24955120102733
 30
0.0
 10
1.245874387222944
 20
25.2482424012006
 30
0.0
  0
SPLINE
  5
48
330
1F
100
AcDbEntity
  8
Make2D visible lines
100
AcDbSpline
210
0.0
220
0.0
230
1.0
 70
     8
 71
     3
 72
    19
 73
    15
 74
     0
 42
0.0000000001
 43
0.0000000001
 40
-40.56948547357128
 40
-40.56948547357128
 40
-40.56948547357128
 40
-40.56948547357128
 40
-30.95498129740862
 40
-21.4154046983477
 40
-13.42618965661133
 40
-12.2548333877044
 40
-11.47442991359358
 40
-6.856879156663426
 40
-6.207381223945343
 40
-6.011587697510116
 40
-4.282491888809361
 40
-1.528420170455697
 40
-0.590606699446772
 40
-0.4062410910773382
 40
-0.4062410910773382
 40
-0.4062410910773382
 40
-0.4062410910773382
 10
1.245874387222944
 20
25.2482424012006
 30
0.0
 10
-0.015985852328875
 20
25.24955120102733
 30
0.0
 10
-2.531060406369442
 20
24.84748332753492
 30
0.0
 10
-5.727553954963525
 20
23.17206694893328
 30
0.0
 10
-7.478771312831522
 20
21.41676542502481
 30
0.0
 10
-8.23121710079371
 20
20.3505701553679
 30
0.0
 10
-8.720771040622251
 20
19.64097815922168
 30
0.0
 10
-9.172064965140796
 20
18.98809912661342
 30
0.0
 10
-9.57973545167454
 20
18.39844035090618
 30
0.0
 10
-9.772349404293339
 20
18.12069136018928
 30
0.0
 10
-10.10426864941125
 20
17.6043410926883
 30
0.0
 10
-10.45425684472652
 20
16.98359258284487
 30
0.0
 10
-10.65419958295942
 20
16.51512307353432
 30
0.0
 10
-10.69792684397672
 20
16.37437951360235
 30
0.0
 10
-10.70442399234836
 20
16.35107202202652
 30
0.0
  0
ARC
  5
49
330
1F
100
AcDbEntity
  8
Make2D visible lines
100
AcDbCircle
 10
2.024495409837155
 20
15.34048344574577
 30
0.0
 40
12.76897327187445
100
AcDbArc
 50
175.4606311624497
 51
178.2973220528008
  0
SPLINE
  5
4A
330
1F
100
AcDbEntity
  8
Make2D visible lines
100
AcDbSpline
210
0.0
220
0.0
230
1.0
 70
    12
 71
     3
 72
    11
 73
     7
 74
     0
 42
0.0000000001
 43
0.0000000001
 40
-3.223996138200893
 40
-3.223996138200893
 40
-3.223996138200893
 40
-3.223996138200893
 40
-2.083639190051232
 40
-1.513581882508038
 40
-0.9434516072362373
 40
0.0
 40
0.0
 40
0.0
 40
0.0
 10
-10.73884000864372
 20
15.71988746944041
 30
0.0
 41
1.0
 10
-10.73941269260536
 20
15.67600526977739
 30
0.0
 41
1.0
 10
-10.73970072498114
 20
15.60785824227094
 30
0.0
 41
1.0
 10
-10.73557592668782
 20
15.51359574156333
 30
0.0
 41
1.0
 10
-10.72750969277046
 20
15.42509701846719
 30
0.0
 41
1.0
 10
-10.71551716592664
 20
15.3574650909489
 30
0.0
 41
1.0
 10
-10.70286587634308
 20
15.31284943172516
 30
0.0
 41
1.0
  0
SPLINE
  5
4B
330
1F
100
AcDbEntity
  8
Make2D visible lines
100
AcDbSpline
210
0.0
220
0.0
230
1.0
 70
     8
 71
     3
 72
    15
 73
    11
 74
     0
 42
0.0000000001
 43
0.0000000001
 40
-2.816932670144126
 40
-2.816932670144126
 40
-2.816932670144126
 40
-2.816932670144126
 40
-2.103544129292643
 40
-1.429631665205895
 40
-0.7562857043586728
 40
-0.400966947361365
 40
-0.0000000000000001
 40
-0.0000000000000001
 40
-0.0000000000000001
 40
0.1165083001863362
 40
0.1165083001863362
 40
0.1165083001863362
 40
0.1165083001863362
 10
-10.70286587634308
 20
15.31284943172516
 30
0.0
 10
-10.67746038162488
 20
15.22309216654206
 30
0.0
 10
-10.59940663447835
 20
15.0539072495434
 30
0.0
 10
-10.38418473894853
 20
14.87805870291828
 30
0.0
 10
-10.16040274754676
 20
14.82864184466419
 30
0.0
 10
-9.973105077643803
 20
14.84390577762689
 30
0.0
 10
-9.876388239626735
 20
14.86847734833698
 30
0.0
 10
-9.82648169633136
 20
14.88495623378485
 30
0.0
 10
-9.811980434903779
 20
14.8906825454763
 30
0.0
 10
-9.797479173476098
 20
14.89218754529048
 30
0.0
 10
-9.782977912048498
 20
14.90213516885918
 30
0.0
  0
SPLINE
  5
4C
330
1F
100
AcDbEntity
  8
Make2D visible lines
100
AcDbSpline
210
0.0
220
0.0
230
1.0
 70
     8
 71
     3
 72
    19
 73
    15
 74
     0
 42
0.0000000001
 43
0.0000000001
 40
-9.110325665264789
 40
-9.110325665264789
 40
-9.110325665264789
 40
-9.110325665264789
 40
-8.831369532824477
 40
-8.30612903996865
 40
-8.002789678334132
 40
-7.423125364532576
 40
-7.138432508441089
 40
-6.909429295455377
 40
-6.309121224596099
 40
-5.902742764056216
 40
-5.344645810490197
 40
-4.041411711912763
 40
-2.197958299617288
 40
0.0
 40
0.0
 40
0.0
 40
0.0
 10
-10.24230445762687
 20
15.70134146671839
 30
0.0
 10
-10.24275461964802
 20
15.66474615991327
 30
0.0
 10
-10.2441136054476
 20
15.55923943176055
 30
0.0
 10
-10.24685436229389
 20
15.41374829829445
 30
0.0
 10
-10.24794057582491
 20
15.22936815998064
 30
0.0
 10
-10.22921850225106
 20
15.0750196023647
 30
0.0
 10
-10.15784438549783
 20
14.94767106657607
 30
0.0
 10
-10.03489875390063
 20
14.85858152664563
 30
0.0
 10
-9.863069584001677
 20
14.87045814871165
 30
0.0
 10
-9.672700211389825
 20
14.94145397169256
 30
0.0
 10
-9.410295314969138
 20
15.08588135565737
 30
0.0
 10
-9.022378052925767
 20
15.37962195568993
 30
0.0
 10
-8.507041065212917
 20
15.85669631249863
 30
0.0
 10
-8.142363472749073
 20
16.24177209256697
 30
0.0
 10
-7.948544355302264
 20
16.45548414839248
 30
0.0
  0
SPLINE
  5
4D
330
1F
100
AcDbEntity
  8
Make2D visible lines
100
AcDbSpline
210
0.0
220
0.0
230
1.0
 70
     8
 71
     3
 72
    15
 73
    11
 74
     0
 42
0.0000000001
 43
0.0000000001
 40
-52.17238885311544
 40
-52.17238885311544
 40
-52.17238885311544
 40
-52.17238885311544
 40
-50.65460737019742
 40
-48.91765958246155
 40
-46.90713818783865
 40
-45.04153959024246
 40
-41.86904556078238
 40
-38.76961114687984
 40
-26.08845241899109
 40
-25.92808114870358
 40
-25.92808114870358
 40
-25.92808114870358
 40
-25.92808114870358
 10
-7.948544355302264
 20
16.45548414839248
 30
0.0
 10
-7.81182439461273
 20
16.60038820512094
 30
0.0
 10
-7.507785649325893
 20
16.90054094304067
 30
0.0
 10
-6.985364854403224
 20
17.35354404764001
 30
0.0
 10
-6.41484948365953
 20
17.81891177600274
 30
0.0
 10
-5.674725927649165
 20
18.37532615725978
 30
0.0
 10
-4.774466266436304
 20
18.95002968777936
 30
0.0
 10
-2.553238220074243
 20
20.08225762130105
 30
0.0
 10
-0.4609752464137612
 20
20.51213855100207
 30
0.0
 10
1.224821573085571
 20
20.50943112220992
 30
0.0
 10
1.245874387222944
 20
20.50934289172689
 30
0.0
  0
SPLINE
  5
4E
330
1F
100
AcDbEntity
  8
Make2D visible lines
100
AcDbSpline
210
0.0
220
0.0
230
1.0
 70
     8
 71
     3
 72
    15
 73
    11
 74
     0
 42
0.0000000001
 43
0.0000000001
 40
25.92808114870358
 40
25.92808114870358
 40
25.92808114870358
 40
25.92808114870358
 40
26.08845241899109
 40
38.76961114687984
 40
41.86904556078238
 40
45.04153959024246
 40
46.90713818783865
 40
48.91765958246155
 40
50.65460737019742
 40
52.17238885311544
 40
52.17238885311544
 40
52.17238885311544
 40
52.17238885311544
 10
1.245874387222944
 20
20.50934289172689
 30
0.0
 10
1.266927201360318
 20
20.50943112220992
 30
0.0
 10
2.95272402085965
 20
20.51213855100207
 30
0.0
 10
5.044986994520132
 20
20.08225762130105
 30
0.0
 10
7.266215040882193
 20
18.95002968777936
 30
0.0
 10
8.166474702095053
 20
18.37532615725978
 30
0.0
 10
8.906598258105419
 20
17.81891177600274
 30
0.0
 10
9.477113628849112
 20
17.35354404764001
 30
0.0
 10
9.999534423771781
 20
16.90054094304067
 30
0.0
 10
10.30357316905862
 20
16.60038820512094
 30
0.0
 10
10.44029312974815
 20
16.45548414839248
 30
0.0
  0
SPLINE
  5
4F
330
1F
100
AcDbEntity
  8
Make2D visible lines
100
AcDbSpline
210
0.0
220
0.0
230
1.0
 70
     8
 71
     3
 72
    19
 73
    15
 74
     0
 42
0.0000000001
 43
0.0000000001
 40
0.0
 40
0.0
 40
0.0
 40
0.0
 40
2.197958299617288
 40
4.041411711912763
 40
5.344645810490197
 40
5.902742764056216
 40
6.309121224596099
 40
6.909429295455377
 40
7.138432508441089
 40
7.423125364532576
 40
8.002789678334132
 40
8.30612903996865
 40
8.831369532824477
 40
9.110325665264789
 40
9.110325665264789
 40
9.110325665264789
 40
9.110325665264789
 10
10.44029312974815
 20
16.45548414839248
 30
0.0
 10
10.63411224719496
 20
16.24177209256697
 30
0.0
 10
10.99878983965881
 20
15.85669631249863
 30
0.0
 10
11.51412682737165
 20
15.37962195568993
 30
0.0
 10
11.90204408941503
 20
15.08588135565737
 30
0.0
 10
12.16444898583571
 20
14.94145397169256
 30
0.0
 10
12.35481835844757
 20
14.87045814871165
 30
0.0
 10
12.52664752834652
 20
14.85858152664563
 30
0.0
 10
12.64959315994372
 20
14.94767106657607
 30
0.0
 10
12.72096727669695
 20
15.0750196023647
 30
0.0
 10
12.7396893502708
 20
15.22936815998064
 30
0.0
 10
12.73860313673978
 20
15.41374829829445
 30
0.0
 10
12.73586237989349
 20
15.55923943176055
 30
0.0
 10
12.73450339409391
 20
15.66474615991327
 30
0.0
 10
12.73405323207276
 20
15.70134146671839
 30
0.0
  0
SPLINE
  5
50
330
1F
100
AcDbEntity
  8
Make2D visible lines
100
AcDbSpline
210
0.0
220
0.0
230
1.0
 70
    24
 71
     2
 72
     6
 73
     3
 74
     0
 42
0.0000000001
 43
0.0000000001
 40
0.0
 40
0.0
 40
0.0
 40
1.540475914324116
 40
1.540475914324116
 40
1.540475914324116
 10
7.498240349968456
 20
18.08509139811229
 30
0.0
 10
7.700887064951567
 20
18.31068129587099
 30
0.0
 10
7.903533779934679
 20
18.5362711936297
 30
0.0
  0
SPLINE
  5
51
330
1F
100
AcDbEntity
  8
Make2D visible lines
100
AcDbSpline
210
0.0
220
0.0
230
1.0
 70
    12
 71
     2
 72
     6
 73
     3
 74
     0
 42
0.0000000001
 43
0.0000000001
 40
0.0
 40
0.0
 40
0.0
 40
1.286805839632297
 40
1.286805839632297
 40
1.286805839632297
 10
7.144447761186878
 20
18.99561929291212
 30
0.0
 41
1.0
 10
6.975176966291627
 20
18.80717179175512
 30
0.0
 41
0.9999999977068943
 10
6.805880649027012
 20
18.61874721889587
 30
0.0
 41
1.0
  0
SPLINE
  5
52
330
1F
100
AcDbEntity
  8
Make2D visible lines
100
AcDbSpline
210
0.0
220
0.0
230
1.0
 70
    24
 71
     2
 72
     6
 73
     3
 74
     0
 42
0.0000000001
 43
0.0000000001
 40
0.0
 40
0.0
 40
0.0
 40
0.4967750912925271
 40
0.4967750912925271
 40
0.4967750912925271
 10
8.23860832928422
 20
2.985470056353828
 30
0.0
 10
8.30696444235937
 20
2.915538670712154
 30
0.0
 10
8.375320555434516
 20
2.84560728507048
 30
0.0
  0
SPLINE
  5
53
330
1F
100
AcDbEntity
  8
Make2D visible lines
100
AcDbSpline
210
0.0
220
0.0
230
1.0
 70
    12
 71
     2
 72
     6
 73
     3
 74
     0
 42
0.0000000001
 43
0.0000000001
 40
0.0
 40
0.0
 40
0.0
 40
0.6617634529449721
 40
0.6617634529449721
 40
0.6617634529449721
 10
8.375320555434516
 20
2.84560728507048
 30
0.0
 41
0.9999999998768396
 10
8.463451916968292
 20
2.755634533413804
 30
0.0
 41
0.936559595342882
 10
8.576142822239163
 20
2.699393847557738
 30
0.0
 41
0.902070089489212
  0
SPLINE
  5
54
330
1F
100
AcDbEntity
  8
Make2D visible lines
100
AcDbSpline
210
0.0
220
0.0
230
1.0
 70
    24
 71
     2
 72
     6
 73
     3
 74
     0
 42
0.0000000001
 43
0.0000000001
 40
0.0
 40
0.0
 40
0.0
 40
2.116772955328329
 40
2.116772955328329
 40
2.116772955328329
 10
8.576142822239163
 20
2.699393847557737
 30
0.0
 10
8.94515091179288
 20
2.505837621990917
 30
0.0
 10
9.314159001346594
 20
2.312281396424096
 30
0.0
  0
SPLINE
  5
55
330
1F
100
AcDbEntity
  8
Make2D visible lines
100
AcDbSpline
210
0.0
220
0.0
230
1.0
 70
    12
 71
     2
 72
     8
 73
     5
 74
     0
 42
0.0000000001
 43
0.0000000001
 40
0.0
 40
0.0
 40
0.0
 40
1.456646262859706
 40
1.456646262859706
 40
3.005816077289897
 40
3.005816077289897
 40
3.005816077289897
 10
9.314159001346594
 20
2.312281396424096
 30
0.0
 41
1.0
 10
9.604843226424123
 20
2.160168086844975
 30
0.0
 41
0.8212978760257547
 10
9.848852990602136
 20
2.37946980770821
 30
0.0
 41
1.0
 10
10.1137848167339
 20
2.616975630495143
 30
0.0
 41
0.7987850216833725
 10
9.958670759066594
 20
2.937190507409446
 30
0.0
 41
1.0
  0
LINE
  5
56
330
1F
100
AcDbEntity
  8
Make2D visible lines
100
AcDbLine
 10
9.958670759066594
 20
2.937190507409446
 30
0.0
 11
9.58252831186175
 21
3.69599186090688
 31
0.0
  0
SPLINE
  5
57
330
1F
100
AcDbEntity
  8
Make2D visible lines
100
AcDbSpline
210
0.0
220
0.0
230
1.0
 70
    12
 71
     2
 72
     6
 73
     3
 74
     0
 42
0.0000000001
 43
0.0000000001
 40
-0.558352940363929
 40
-0.558352940363929
 40
-0.558352940363929
 40
0.0
 40
0.0
 40
0.0
 10
9.58252831186175
 20
3.69599186090688
 30
0.0
 41
0.9108684765089425
 10
9.536745314206794
 20
3.790151941774849
 30
0.0
 41
0.9451646238155227
 10
9.466910906634673
 20
3.868160612114745
 30
0.0
 41
1.0
  0
SPLINE
  5
58
330
1F
100
AcDbEntity
  8
Make2D visible lines
100
AcDbSpline
210
0.0
220
0.0
230
1.0
 70
    12
 71
     2
 72
     6
 73
     3
 74
     0
 42
0.0000000001
 43
0.0000000001
 40
-0.0807547588960874
 40
-0.0807547588960874
 40
-0.0807547588960874
 40
0.0
 40
0.0
 40
0.0
 10
9.466910906634673
 20
3.868160612114745
 30
0.0
 41
1.0
 10
9.456292773494642
 20
3.879994213277262
 30
0.0
 41
0.999772181767694
 10
9.445178951480491
 20
3.89136418264233
 30
0.0
 41
1.0
  0
SPLINE
  5
59
330
1F
100
AcDbEntity
  8
Make2D visible lines
100
AcDbSpline
210
0.0
220
0.0
230
1.0
 70
    24
 71
     2
 72
     6
 73
     3
 74
     0
 42
0.0000000001
 43
0.0000000001
 40
0.0
 40
0.0
 40
0.0
 40
0.5192669669429364
 40
0.5192669669429364
 40
0.5192669669429364
 10
9.445178951480491
 20
3.89136418264233
 30
0.0
 10
9.373727804546412
 20
3.964461927467596
 30
0.0
 10
9.302276657612332
 20
4.037559672292862
 30
0.0
  0
SPLINE
  5
5A
330
1F
100
AcDbEntity
  8
Make2D visible lines
100
AcDbSpline
210
0.0
220
0.0
230
1.0
 70
    12
 71
     2
 72
     6
 73
     3
 74
     0
 42
0.0000000001
 43
0.0000000001
 40
-0.1435843807754733
 40
-0.1435843807754733
 40
-0.1435843807754733
 40
0.0
 40
0.0
 40
0.0
 10
8.282648056101234
 20
2.949510838790741
 30
0.0
 41
1.0
 10
8.26041599777556
 20
2.966986261113944
 30
0.0
 41
0.9992826527710585
 10
8.239490717790245
 20
2.986165744346396
 30
0.0
 41
1.0
  0
SPLINE
  5
5B
330
1F
100
AcDbEntity
  8
Make2D visible lines
100
AcDbSpline
210
0.0
220
0.0
230
1.0
 70
    12
 71
     2
 72
     6
 73
     3
 74
     0
 42
0.0000000001
 43
0.0000000001
 40
0.0
 40
0.0
 40
0.0
 40
2.796943617802754
 40
2.796943617802754
 40
2.796943617802754
 10
8.239490717790243
 20
2.986165744346395
 30
0.0
 41
0.9999447090367912
 10
8.739601688465635
 20
2.528591077385866
 30
0.0
 41
0.7406347107735252
 10
9.243592558944185
 20
2.98188872938416
 30
0.0
 41
1.0
  0
SPLINE
  5
5C
330
1F
100
AcDbEntity
  8
Make2D visible lines
100
AcDbSpline
210
0.0
220
0.0
230
1.0
 70
    12
 71
     2
 72
     8
 73
     5
 74
     0
 42
0.0000000001
 43
0.0000000001
 40
0.0
 40
0.0
 40
0.0
 40
2.981367383418532
 40
2.981367383418532
 40
3.062122142315525
 40
3.062122142315525
 40
3.062122142315525
 10
9.243592558944185
 20
2.98188872938416
 30
0.0
 41
1.0
 10
9.800147594275927
 20
3.480395486406152
 30
0.0
 41
0.7072023979898215
 10
9.301791383279186
 20
4.037085329236674
 30
0.0
 41
1.0
 10
9.291173250139035
 20
4.048918930399323
 30
0.0
 41
0.9997721817676903
 10
9.280059428125746
 20
4.060288899763489
 30
0.0
 41
1.0
  0
SPLINE
  5
5D
330
1F
100
AcDbEntity
  8
Make2D visible lines
100
AcDbSpline
210
0.0
220
0.0
230
1.0
 70
    12
 71
     2
 72
     6
 73
     3
 74
     0
 42
0.0000000001
 43
0.0000000001
 40
0.0
 40
0.0
 40
0.0
 40
0.2872987577127039
 40
0.2872987577127039
 40
0.2872987577127039
 10
9.280059428125746
 20
4.060288899763489
 30
0.0
 41
1.0
 10
9.24044665153691
 20
4.100805824381462
 30
0.0
 41
0.9971292901999523
 10
9.195170362956285
 20
4.134876335234548
 30
0.0
 41
1.0
  0
POLYLINE
  5
5E
330
1F
100
AcDbEntity
  8
Make2D visible lines
100
AcDb2dPolyline
 66
     1
 10
0.0
 20
0.0
 30
0.0
  0
VERTEX
  5
5F
330
5E
100
AcDbEntity
  8
Make2D visible lines
100
AcDbVertex
100
AcDb2dVertex
 10
10.35382035279643
 20
20.85732838792606
 30
0.0
  0
VERTEX
  5
60
330
5E
100
AcDbEntity
  8
Make2D visible lines
100
AcDbVertex
100
AcDb2dVertex
 10
10.49220996697614
 20
21.03604852952476
 30
0.0
  0
SEQEND
  5
61
330
5E
100
AcDbEntity
  8
Make2D visible lines
  0
SPLINE
  5
62
330
1F
100
AcDbEntity
  8
Make2D visible lines
100
AcDbSpline
210
0.0
220
0.0
230
1.0
 70
    12
 71
     2
 72
     6
 73
     3
 74
     0
 42
0.0000000001
 43
0.0000000001
 40
0.12864132153549
 40
0.12864132153549
 40
0.12864132153549
 40
0.6688183136340263
 40
0.6688183136340263
 40
0.6688183136340263
 10
10.49220996697614
 20
21.03604852952476
 30
0.0
 41
0.9763679258354347
 10
10.5526876525031
 20
21.11995007220617
 30
0.0
 41
0.9290486655138835
 10
10.59030583304467
 20
21.21647766589087
 30
0.0
 41
0.901023311597957
  0
SPLINE
  5
63
330
1F
100
AcDbEntity
  8
Make2D visible lines
100
AcDbSpline
210
0.0
220
0.0
230
1.0
 70
    24
 71
     2
 72
     6
 73
     3
 74
     0
 42
0.0000000001
 43
0.0000000001
 40
0.0
 40
0.0
 40
0.0
 40
2.280597048550982
 40
2.280597048550982
 40
2.280597048550982
 10
10.59030583304467
 20
21.21647766589087
 30
0.0
 10
10.76816284162826
 20
21.62868004304515
 30
0.0
 10
10.94601985021184
 20
22.04088242019944
 30
0.0
  0
SPLINE
  5
64
330
1F
100
AcDbEntity
  8
Make2D visible lines
100
AcDbSpline
210
0.0
220
0.0
230
1.0
 70
    12
 71
     2
 72
     8
 73
     5
 74
     0
 42
0.0000000001
 43
0.0000000001
 40
0.0
 40
0.0
 40
0.0
 40
1.494464654003035
 40
1.494464654003035
 40
3.081929291258796
 40
3.081929291258796
 40
3.081929291258796
 10
10.94601985021184
 20
22.04088242019944
 30
0.0
 41
0.9999999997783633
 10
11.08011828228476
 20
22.35250613743818
 30
0.0
 41
0.8121503362021287
 10
10.82759498269779
 20
22.5790535139311
 30
0.0
 41
1.0
 10
10.55422687022763
 20
22.82509424059219
 30
0.0
 41
0.7890223819226095
 10
10.24868415678558
 20
22.62037196256061
 30
0.0
 41
1.0
  0
SPLINE
  5
65
330
1F
100
AcDbEntity
  8
Make2D visible lines
100
AcDbSpline
210
0.0
220
0.0
230
1.0
 70
    24
 71
     2
 72
     6
 73
     3
 74
     0
 42
0.0000000001
 43
0.0000000001
 40
0.0
 40
0.0
 40
0.0
 40
2.319783195946155
 40
2.319783195946155
 40
2.319783195946155
 10
10.24868415678558
 20
22.62037196256061
 30
0.0
 10
9.869668173976155
 20
22.36565398722835
 30
0.0
 10
9.490652191166726
 20
22.11093601189608
 30
0.0
  0
SPLINE
  5
66
330
1F
100
AcDbEntity
  8
Make2D visible lines
100
AcDbSpline
210
0.0
220
0.0
230
1.0
 70
    12
 71
     2
 72
     6
 73
     3
 74
     0
 42
0.0000000001
 43
0.0000000001
 40
-0.5122343217119593
 40
-0.5122343217119593
 40
-0.5122343217119593
 40
0.0
 40
0.0
 40
0.0
 10
9.49065219116673
 20
22.11093601189608
 30
0.0
 41
0.9180362185884603
 10
9.409545417631096
 20
22.05989531338023
 30
0.0
 41
0.9503596229947082
 10
9.343744524332028
 20
21.9902273129388
 30
0.0
 41
1.0
  0
SPLINE
  5
67
330
1F
100
AcDbEntity
  8
Make2D visible lines
100
AcDbSpline
210
0.0
220
0.0
230
1.0
 70
    24
 71
     2
 72
     6
 73
     3
 74
     0
 42
0.0000000001
 43
0.0000000001
 40
0.0
 40
0.0
 40
0.0
 40
1.540475914324116
 40
1.540475914324116
 40
1.540475914324116
 10
-5.006491575522567
 20
18.08509139811229
 30
0.0
 10
-5.209138290505678
 20
18.31068129587099
 30
0.0
 10
-5.41178500548879
 20
18.5362711936297
 30
0.0
  0
SPLINE
  5
68
330
1F
100
AcDbEntity
  8
Make2D visible lines
100
AcDbSpline
210
0.0
220
0.0
230
1.0
 70
    12
 71
     2
 72
     6
 73
     3
 74
     0
 42
0.0000000001
 43
0.0000000001
 40
0.0
 40
0.0
 40
0.0
 40
1.286805839632297
 40
1.286805839632297
 40
1.286805839632297
 10
-4.652698986740988
 20
18.99561929291212
 30
0.0
 41
1.0
 10
-4.483428191845741
 20
18.80717179175512
 30
0.0
 41
0.9999999977068943
 10
-4.314131874581123
 20
18.61874721889587
 30
0.0
 41
1.0
  0
SPLINE
  5
69
330
1F
100
AcDbEntity
  8
Make2D visible lines
100
AcDbSpline
210
0.0
220
0.0
230
1.0
 70
    24
 71
     2
 72
     6
 73
     3
 74
     0
 42
0.0000000001
 43
0.0000000001
 40
0.0
 40
0.0
 40
0.0
 40
0.4967750912925271
 40
0.4967750912925271
 40
0.4967750912925271
 10
-5.746859554838332
 20
2.985470056353828
 30
0.0
 10
-5.81521566791348
 20
2.915538670712154
 30
0.0
 10
-5.883571780988628
 20
2.84560728507048
 30
0.0
  0
SPLINE
  5
6A
330
1F
100
AcDbEntity
  8
Make2D visible lines
100
AcDbSpline
210
0.0
220
0.0
230
1.0
 70
    12
 71
     2
 72
     6
 73
     3
 74
     0
 42
0.0000000001
 43
0.0000000001
 40
0.0
 40
0.0
 40
0.0
 40
0.6617634529449721
 40
0.6617634529449721
 40
0.6617634529449721
 10
-5.883571780988628
 20
2.84560728507048
 30
0.0
 41
0.9999999998768396
 10
-5.971703142522404
 20
2.755634533413804
 30
0.0
 41
0.936559595342882
 10
-6.084394047793276
 20
2.699393847557738
 30
0.0
 41
0.902070089489212
  0
SPLINE
  5
6B
330
1F
100
AcDbEntity
  8
Make2D visible lines
100
AcDbSpline
210
0.0
220
0.0
230
1.0
 70
    24
 71
     2
 72
     6
 73
     3
 74
     0
 42
0.0000000001
 43
0.0000000001
 40
0.0
 40
0.0
 40
0.0
 40
2.116772955328329
 40
2.116772955328329
 40
2.116772955328329
 10
-6.084394047793275
 20
2.699393847557737
 30
0.0
 10
-6.453402137346989
 20
2.505837621990917
 30
0.0
 10
-6.822410226900705
 20
2.312281396424096
 30
0.0
  0
SPLINE
  5
6C
330
1F
100
AcDbEntity
  8
Make2D visible lines
100
AcDbSpline
210
0.0
220
0.0
230
1.0
 70
    12
 71
     2
 72
     8
 73
     5
 74
     0
 42
0.0000000001
 43
0.0000000001
 40
0.0
 40
0.0
 40
0.0
 40
1.456646262859706
 40
1.456646262859706
 40
3.005816077289897
 40
3.005816077289897
 40
3.005816077289897
 10
-6.822410226900705
 20
2.312281396424096
 30
0.0
 41
1.0
 10
-7.113094451978236
 20
2.160168086844975
 30
0.0
 41
0.8212978760257547
 10
-7.357104216156247
 20
2.37946980770821
 30
0.0
 41
1.0
 10
-7.622036042288014
 20
2.616975630495143
 30
0.0
 41
0.7987850216833725
 10
-7.466921984620705
 20
2.937190507409446
 30
0.0
 41
1.0
  0
LINE
  5
6D
330
1F
100
AcDbEntity
  8
Make2D visible lines
100
AcDbLine
 10
-7.466921984620705
 20
2.937190507409446
 30
0.0
 11
-7.090779537415862
 21
3.69599186090688
 31
0.0
  0
SPLINE
  5
6E
330
1F
100
AcDbEntity
  8
Make2D visible lines
100
AcDbSpline
210
0.0
220
0.0
230
1.0
 70
    12
 71
     2
 72
     6
 73
     3
 74
     0
 42
0.0000000001
 43
0.0000000001
 40
-0.558352940363929
 40
-0.558352940363929
 40
-0.558352940363929
 40
0.0
 40
0.0
 40
0.0
 10
-7.090779537415864
 20
3.69599186090688
 30
0.0
 41
0.9108684765089425
 10
-7.044996539760906
 20
3.790151941774849
 30
0.0
 41
0.9451646238155227
 10
-6.975162132188785
 20
3.868160612114745
 30
0.0
 41
1.0
  0
SPLINE
  5
6F
330
1F
100
AcDbEntity
  8
Make2D visible lines
100
AcDbSpline
210
0.0
220
0.0
230
1.0
 70
    12
 71
     2
 72
     6
 73
     3
 74
     0
 42
0.0000000001
 43
0.0000000001
 40
-0.0807547588960874
 40
-0.0807547588960874
 40
-0.0807547588960874
 40
0.0
 40
0.0
 40
0.0
 10
-6.975162132188785
 20
3.868160612114745
 30
0.0
 41
1.0
 10
-6.964543999048752
 20
3.879994213277262
 30
0.0
 41
0.999772181767694
 10
-6.953430177034602
 20
3.89136418264233
 30
0.0
 41
1.0
  0
SPLINE
  5
70
330
1F
100
AcDbEntity
  8
Make2D visible lines
100
AcDbSpline
210
0.0
220
0.0
230
1.0
 70
    24
 71
     2
 72
     6
 73
     3
 74
     0
 42
0.0000000001
 43
0.0000000001
 40
0.0
 40
0.0
 40
0.0
 40
0.5192669669429364
 40
0.5192669669429364
 40
0.5192669669429364
 10
-6.953430177034602
 20
3.89136418264233
 30
0.0
 10
-6.881979030100522
 20
3.964461927467596
 30
0.0
 10
-6.810527883166443
 20
4.037559672292862
 30
0.0
  0
SPLINE
  5
71
330
1F
100
AcDbEntity
  8
Make2D visible lines
100
AcDbSpline
210
0.0
220
0.0
230
1.0
 70
    12
 71
     2
 72
     6
 73
     3
 74
     0
 42
0.0000000001
 43
0.0000000001
 40
-0.1435843807754733
 40
-0.1435843807754733
 40
-0.1435843807754733
 40
0.0
 40
0.0
 40
0.0
 10
-5.790899281655345
 20
2.949510838790741
 30
0.0
 41
1.0
 10
-5.768667223329669
 20
2.966986261113944
 30
0.0
 41
0.9992826527710585
 10
-5.747741943344356
 20
2.986165744346396
 30
0.0
 41
1.0
  0
SPLINE
  5
72
330
1F
100
AcDbEntity
  8
Make2D visible lines
100
AcDbSpline
210
0.0
220
0.0
230
1.0
 70
    12
 71
     2
 72
     6
 73
     3
 74
     0
 42
0.0000000001
 43
0.0000000001
 40
0.0
 40
0.0
 40
0.0
 40
2.796943617802754
 40
2.796943617802754
 40
2.796943617802754
 10
-5.747741943344358
 20
2.986165744346395
 30
0.0
 41
0.9999447090367912
 10
-6.247852914019751
 20
2.528591077385866
 30
0.0
 41
0.7406347107735252
 10
-6.751843784498297
 20
2.98188872938416
 30
0.0
 41
1.0
  0
SPLINE
  5
73
330
1F
100
AcDbEntity
  8
Make2D visible lines
100
AcDbSpline
210
0.0
220
0.0
230
1.0
 70
    12
 71
     2
 72
     8
 73
     5
 74
     0
 42
0.0000000001
 43
0.0000000001
 40
0.0
 40
0.0
 40
0.0
 40
2.981367383418532
 40
2.981367383418532
 40
3.062122142315525
 40
3.062122142315525
 40
3.062122142315525
 10
-6.751843784498297
 20
2.98188872938416
 30
0.0
 41
1.0
 10
-7.308398819830037
 20
3.480395486406152
 30
0.0
 41
0.7072023979898215
 10
-6.810042608833298
 20
4.037085329236674
 30
0.0
 41
1.0
 10
-6.799424475693144
 20
4.048918930399323
 30
0.0
 41
0.9997721817676903
 10
-6.788310653679858
 20
4.060288899763489
 30
0.0
 41
1.0
  0
SPLINE
  5
74
330
1F
100
AcDbEntity
  8
Make2D visible lines
100
AcDbSpline
210
0.0
220
0.0
230
1.0
 70
    12
 71
     2
 72
     6
 73
     3
 74
     0
 42
0.0000000001
 43
0.0000000001
 40
0.0
 40
0.0
 40
0.0
 40
0.2872987577127039
 40
0.2872987577127039
 40
0.2872987577127039
 10
-6.788310653679858
 20
4.060288899763489
 30
0.0
 41
1.0
 10
-6.748697877091024
 20
4.100805824381462
 30
0.0
 41
0.9971292901999523
 10
-6.703421588510396
 20
4.134876335234548
 30
0.0
 41
1.0
  0
POLYLINE
  5
75
330
1F
100
AcDbEntity
  8
Make2D visible lines
100
AcDb2dPolyline
 66
     1
 10
0.0
 20
0.0
 30
0.0
  0
VERTEX
  5
76
330
75
100
AcDbEntity
  8
Make2D visible lines
100
AcDbVertex
100
AcDb2dVertex
 10
-7.862071578350541
 20
20.85732838792606
 30
0.0
  0
VERTEX
  5
77
330
75
100
AcDbEntity
  8
Make2D visible lines
100
AcDbVertex
100
AcDb2dVertex
 10
-8.00046119253025
 20
21.03604852952476
 30
0.0
  0
SEQEND
  5
78
330
75
100
AcDbEntity
  8
Make2D visible lines
  0
SPLINE
  5
79
330
1F
100
AcDbEntity
  8
Make2D visible lines
100
AcDbSpline
210
0.0
220
0.0
230
1.0
 70
    12
 71
     2
 72
     6
 73
     3
 74
     0
 42
0.0000000001
 43
0.0000000001
 40
0.12864132153549
 40
0.12864132153549
 40
0.12864132153549
 40
0.6688183136340263
 40
0.6688183136340263
 40
0.6688183136340263
 10
-8.000461192530247
 20
21.03604852952476
 30
0.0
 41
0.9763679258354347
 10
-8.060938878057211
 20
21.11995007220617
 30
0.0
 41
0.9290486655138835
 10
-8.098557058598782
 20
21.21647766589087
 30
0.0
 41
0.901023311597957
  0
SPLINE
  5
7A
330
1F
100
AcDbEntity
  8
Make2D visible lines
100
AcDbSpline
210
0.0
220
0.0
230
1.0
 70
    24
 71
     2
 72
     6
 73
     3
 74
     0
 42
0.0000000001
 43
0.0000000001
 40
0.0
 40
0.0
 40
0.0
 40
2.280597048550982
 40
2.280597048550982
 40
2.280597048550982
 10
-8.098557058598782
 20
21.21647766589087
 30
0.0
 10
-8.276414067182369
 20
21.62868004304515
 30
0.0
 10
-8.454271075765956
 20
22.04088242019944
 30
0.0
  0
SPLINE
  5
7B
330
1F
100
AcDbEntity
  8
Make2D visible lines
100
AcDbSpline
210
0.0
220
0.0
230
1.0
 70
    12
 71
     2
 72
     8
 73
     5
 74
     0
 42
0.0000000001
 43
0.0000000001
 40
0.0
 40
0.0
 40
0.0
 40
1.494464654003035
 40
1.494464654003035
 40
3.081929291258796
 40
3.081929291258796
 40
3.081929291258796
 10
-8.454271075765957
 20
22.04088242019944
 30
0.0
 41
0.9999999997783633
 10
-8.588369507838866
 20
22.35250613743818
 30
0.0
 41
0.8121503362021287
 10
-8.335846208251905
 20
22.5790535139311
 30
0.0
 41
1.0
 10
-8.062478095781746
 20
22.82509424059219
 30
0.0
 41
0.7890223819226095
 10
-7.756935382339694
 20
22.62037196256061
 30
0.0
 41
1.0
  0
SPLINE
  5
7C
330
1F
100
AcDbEntity
  8
Make2D visible lines
100
AcDbSpline
210
0.0
220
0.0
230
1.0
 70
    24
 71
     2
 72
     6
 73
     3
 74
     0
 42
0.0000000001
 43
0.0000000001
 40
0.0
 40
0.0
 40
0.0
 40
2.319783195946155
 40
2.319783195946155
 40
2.319783195946155
 10
-7.756935382339694
 20
22.62037196256061
 30
0.0
 10
-7.377919399530265
 20
22.36565398722835
 30
0.0
 10
-6.998903416720837
 20
22.11093601189608
 30
0.0
  0
SPLINE
  5
7D
330
1F
100
AcDbEntity
  8
Make2D visible lines
100
AcDbSpline
210
0.0
220
0.0
230
1.0
 70
    12
 71
     2
 72
     6
 73
     3
 74
     0
 42
0.0000000001
 43
0.0000000001
 40
-0.5122343217119593
 40
-0.5122343217119593
 40
-0.5122343217119593
 40
0.0
 40
0.0
 40
0.0
 10
-6.998903416720839
 20
22.11093601189608
 30
0.0
 41
0.9180362185884603
 10
-6.917796643185205
 20
22.05989531338023
 30
0.0
 41
0.9503596229947082
 10
-6.851995749886139
 20
21.9902273129388
 30
0.0
 41
1.0
  0
ENDSEC
  0
SECTION
  2
OBJECTS
  0
DICTIONARY
  5
C
330
0
100
AcDbDictionary
281
     1
  3
ACAD_GROUP
350
D
  3
ACAD_LAYOUT
350
1A
  3
ACAD_MLEADERSTYLE
350
7F
  3
ACAD_MLINESTYLE
350
17
  3
ACAD_PLOTSETTINGS
350
19
  3
ACAD_PLOTSTYLENAME
350
E
  3
ACAD_TABLESTYLE
350
7E
  3
ACAD_VISUALSTYLE
350
2A
  0
DICTIONARY
  5
D
102
{ACAD_REACTORS
330
C
102
}
330
C
100
AcDbDictionary
281
     1
  0
DICTIONARY
  5
1A
102
{ACAD_REACTORS
330
C
102
}
330
C
100
AcDbDictionary
281
     1
  3
Layout1
350
1E
  3
Layout2
350
26
  3
Model
350
22
  0
DICTIONARY
  5
7F
102
{ACAD_REACTORS
330
C
102
}
330
C
100
AcDbDictionary
281
     1
  0
DICTIONARY
  5
17
102
{ACAD_REACTORS
330
C
102
}
330
C
100
AcDbDictionary
281
     1
  3
Standard
350
18
  0
DICTIONARY
  5
19
102
{ACAD_REACTORS
330
C
102
}
330
C
100
AcDbDictionary
281
     1
  0
ACDBDICTIONARYWDFLT
  5
E
102
{ACAD_REACTORS
330
C
102
}
330
C
100
AcDbDictionary
281
     1
  3
Normal
350
F
100
AcDbDictionaryWithDefault
340
F
  0
DICTIONARY
  5
7E
102
{ACAD_REACTORS
330
C
102
}
330
C
100
AcDbDictionary
281
     1
  0
DICTIONARY
  5
2A
102
{ACAD_REACTORS
330
C
102
}
330
C
100
AcDbDictionary
281
     1
  3
2dWireframe
350
2F
  3
3D Hidden
350
31
  3
3dWireframe
350
30
  3
Basic
350
32
  3
Brighten
350
36
  3
ColorChange
350
3A
  3
Conceptual
350
34
  3
Dim
350
35
  3
Facepattern
350
39
  3
Flat
350
2B
  3
FlatWithEdges
350
2C
  3
Gouraud
350
2D
  3
GouraudWithEdges
350
2E
  3
Linepattern
350
38
  3
Realistic
350
33
  3
Thicken
350
37
  0
LAYOUT
  5
1E
102
{ACAD_REACTORS
330
1A
102
}
330
1A
100
AcDbPlotSettings
  1

  2
none_device
  4

  6

 40
0.0
 41
0.0
 42
0.0
 43
0.0
 44
0.0
 45
0.0
 46
0.0
 47
0.0
 48
0.0
 49
0.0
140
0.0
141
0.0
142
1.0
143
1.0
 70
   688
 72
     0
 73
     0
 74
     5
  7

 75
    16
 76
     0
 77
     2
 78
   300
147
1.0
148
0.0
149
0.0
100
AcDbLayout
  1
Layout1
 70
     1
 71
     1
 10
0.0
 20
0.0
 11
12.0
 21
9.0
 12
0.0
 22
0.0
 32
0.0
 14
1.000000000000000E+20
 24
1.000000000000000E+20
 34
1.000000000000000E+20
 15
-1.000000000000000E+20
 25
-1.000000000000000E+20
 35
-1.000000000000000E+20
146
0.0
 13
0.0
 23
0.0
 33
0.0
 16
1.0
 26
0.0
 36
0.0
 17
0.0
 27
1.0
 37
0.0
 76
     0
330
1B
  0
LAYOUT
  5
26
102
{ACAD_REACTORS
330
1A
102
}
330
1A
100
AcDbPlotSettings
  1

  2
none_device
  4

  6

 40
0.0
 41
0.0
 42
0.0
 43
0.0
 44
0.0
 45
0.0
 46
0.0
 47
0.0
 48
0.0
 49
0.0
140
0.0
141
0.0
142
1.0
143
1.0
 70
   688
 72
     0
 73
     0
 74
     5
  7

 75
    16
 76
     0
 77
     2
 78
   300
147
1.0
148
0.0
149
0.0
100
AcDbLayout
  1
Layout2
 70
     1
 71
     2
 10
0.0
 20
0.0
 11
0.0
 21
0.0
 12
0.0
 22
0.0
 32
0.0
 14
0.0
 24
0.0
 34
0.0
 15
0.0
 25
0.0
 35
0.0
146
0.0
 13
0.0
 23
0.0
 33
0.0
 16
1.0
 26
0.0
 36
0.0
 17
0.0
 27
1.0
 37
0.0
 76
     0
330
23
  0
LAYOUT
  5
22
102
{ACAD_REACTORS
330
1A
102
}
330
1A
100
AcDbPlotSettings
  1

  2
none_device
  4

  6

 40
0.0
 41
0.0
 42
0.0
 43
0.0
 44
0.0
 45
0.0
 46
0.0
 47
0.0
 48
0.0
 49
0.0
140
0.0
141
0.0
142
1.0
143
1.0
 70
  1712
 72
     0
 73
     0
 74
     0
  7

 75
     0
 76
     0
 77
     2
 78
   300
147
1.0
148
0.0
149
0.0
100
AcDbLayout
  1
Model
 70
     1
 71
     0
 10
0.0
 20
0.0
 11
12.0
 21
9.0
 12
0.0
 22
0.0
 32
0.0
 14
-10.73884000864372
 24
0.0000030700665128
 34
0.0
 15
13.23058878308976
 25
25.24824240120064
 35
0.0
146
0.0
 13
0.0
 23
0.0
 33
0.0
 16
1.0
 26
0.0
 36
0.0
 17
0.0
 27
1.0
 37
0.0
 76
     0
330
1F
331
29
  0
MLINESTYLE
  5
18
102
{ACAD_REACTORS
330
17
102
}
330
17
100
AcDbMlineStyle
  2
Standard
 70
     0
  3

 62
   256
 51
90.0
 52
90.0
 71
     2
 49
0.5
 62
   256
  6
BYLAYER
 49
-0.5
 62
   256
  6
BYLAYER
  0
ACDBPLACEHOLDER
  5
F
102
{ACAD_REACTORS
330
E
102
}
330
E
  0
VISUALSTYLE
  5
2F
102
{ACAD_REACTORS
330
2A
102
}
330
2A
100
AcDbVisualStyle
  2
2dWireframe
 70
     4
 71
     0
 72
     2
 73
     0
 90
        0
 40
-0.6
 41
-30.0
 62
     5
 63
     7
421
 16777215
 74
     1
 91
        4
 64
     7
 65
   257
 75
     1
175
     1
 42
1.0
 92
        0
 66
   257
 43
1.0
 76
     1
 77
     6
 78
     2
 67
     7
 79
     5
170
     0
171
     0
290
     0
174
     0
 93
        1
 44
0.0
173
     0
291
     0
 45
0.0
1001
ACAD
1000
AcDbSavedByObjectVersion
1070
     0
  0
VISUALSTYLE
  5
31
102
{ACAD_REACTORS
330
2A
102
}
330
2A
100
AcDbVisualStyle
  2
3D Hidden
 70
     6
 71
     1
 72
     2
 73
     2
 90
        0
 40
-0.6
 41
-30.0
 62
     5
 63
     7
421
 16777215
 74
     2
 91
        2
 64
     7
 65
   257
 75
     2
175
     1
 42
40.0
 92
        0
 66
   257
 43
1.0
 76
     1
 77
     6
 78
     2
 67
     7
 79
     3
170
     0
171
     0
290
     0
174
     0
 93
        1
 44
0.0
173
     0
291
     0
 45
0.0
1001
ACAD
1000
AcDbSavedByObjectVersion
1070
     0
  0
VISUALSTYLE
  5
30
102
{ACAD_REACTORS
330
2A
102
}
330
2A
100
AcDbVisualStyle
  2
3dWireframe
 70
     5
 71
     0
 72
     2
 73
     0
 90
        0
 40
-0.6
 41
-30.0
 62
     5
 63
     7
421
 16777215
 74
     1
 91
        4
 64
     7
 65
   257
 75
     1
175
     1
 42
1.0
 92
        0
 66
   257
 43
1.0
 76
     1
 77
     6
 78
     2
 67
     7
 79
     5
170
     0
171
     0
290
     0
174
     0
 93
        1
 44
0.0
173
     0
291
     0
 45
0.0
1001
ACAD
1000
AcDbSavedByObjectVersion
1070
     0
  0
VISUALSTYLE
  5
32
102
{ACAD_REACTORS
330
2A
102
}
330
2A
100
AcDbVisualStyle
  2
Basic
 70
     7
 71
     1
 72
     0
 73
     1
 90
        0
 40
-0.6
 41
-30.0
 62
     5
 63
     7
421
 16777215
 74
     0
 91
        4
 64
     7
 65
   257
 75
     1
175
     1
 42
1.0
 92
        8
 66
     7
 43
1.0
 76
     1
 77
     6
 78
     2
 67
     7
 79
     5
170
     0
171
     0
290
     0
174
     0
 93
        1
 44
0.0
173
     0
291
     1
 45
0.0
1001
ACAD
1000
AcDbSavedByObjectVersion
1070
     0
  0
VISUALSTYLE
  5
36
102
{ACAD_REACTORS
330
2A
102
}
330
2A
100
AcDbVisualStyle
  2
Brighten
 70
    12
 71
     2
 72
     2
 73
     0
 90
        0
 40
-0.6
 41
-30.0
 62
     5
 63
     7
421
 16777215
 74
     1
 91
        4
 64
     7
 65
   257
 75
     1
175
     1
 42
1.0
 92
        8
 66
     7
 43
1.0
 76
     1
 77
     6
 78
     2
 67
     7
 79
     5
170
     0
171
     0
290
     0
174
     0
 93
        1
 44
50.0
173
     0
291
     1
 45
0.0
1001
ACAD
1000
AcDbSavedByObjectVersion
1070
     0
  0
VISUALSTYLE
  5
3A
102
{ACAD_REACTORS
330
2A
102
}
330
2A
100
AcDbVisualStyle
  2
ColorChange
 70
    16
 71
     2
 72
     2
 73
     3
 90
        0
 40
-0.6
 41
-30.0
 62
     5
 63
     8
421
  8421504
 74
     1
 91
        4
 64
     7
 65
   257
 75
     1
175
     1
 42
1.0
 92
        8
 66
     8
424
  8421504
 43
1.0
 76
     1
 77
     6
 78
     2
 67
     7
 79
     5
170
     0
171
     0
290
     0
174
     0
 93
        1
 44
0.0
173
     0
291
     1
 45
0.0
1001
ACAD
1000
AcDbSavedByObjectVersion
1070
     0
  0
VISUALSTYLE
  5
34
102
{ACAD_REACTORS
330
2A
102
}
330
2A
100
AcDbVisualStyle
  2
Conceptual
 70
     9
 71
     3
 72
     2
 73
     0
 90
        0
 40
-0.6
 41
-30.0
 62
     5
 63
     7
421
 16777215
 74
     2
 91
        2
 64
     7
 65
   257
 75
     1
175
     1
 42
40.0
 92
        8
 66
     7
 43
1.0
 76
     1
 77
     6
 78
     2
 67
     7
 79
     3
170
     0
171
     0
290
     0
174
     0
 93
        1
 44
0.0
173
     0
291
     0
 45
0.0
1001
ACAD
1000
AcDbSavedByObjectVersion
1070
     0
  0
VISUALSTYLE
  5
35
102
{ACAD_REACTORS
330
2A
102
}
330
2A
100
AcDbVisualStyle
  2
Dim
 70
    11
 71
     2
 72
     2
 73
     0
 90
        0
 40
-0.6
 41
-30.0
 62
     5
 63
     7
421
 16777215
 74
     1
 91
        4
 64
     7
 65
   257
 75
     1
175
     1
 42
1.0
 92
        8
 66
     7
 43
1.0
 76
     1
 77
     6
 78
     2
 67
     7
 79
     5
170
     0
171
     0
290
     0
174
     0
 93
        1
 44
-50.0
173
     0
291
     1
 45
0.0
1001
ACAD
1000
AcDbSavedByObjectVersion
1070
     0
  0
VISUALSTYLE
  5
39
102
{ACAD_REACTORS
330
2A
102
}
330
2A
100
AcDbVisualStyle
  2
Facepattern
 70
    15
 71
     2
 72
     2
 73
     0
 90
        0
 40
-0.6
 41
-30.0
 62
     5
 63
     7
421
 16777215
 74
     1
 91
        4
 64
     7
 65
   257
 75
     1
175
     1
 42
1.0
 92
        8
 66
     7
 43
1.0
 76
     1
 77
     6
 78
     2
 67
     7
 79
     5
170
     0
171
     0
290
     0
174
     0
 93
        1
 44
0.0
173
     0
291
     1
 45
0.0
1001
ACAD
1000
AcDbSavedByObjectVersion
1070
     0
  0
VISUALSTYLE
  5
2B
102
{ACAD_REACTORS
330
2A
102
}
330
2A
100
AcDbVisualStyle
  2
Flat
 70
     0
 71
     2
 72
     1
 73
     1
 90
        2
 40
-0.6
 41
30.0
 62
     5
 63
     7
421
 16777215
 74
     0
 91
        4
 64
     7
 65
   257
 75
     1
175
     1
 42
1.0
 92
        8
 66
     7
 43
1.0
 76
     1
 77
     6
 78
     2
 67
     7
 79
     5
170
     0
171
     0
290
     0
174
     0
 93
       13
 44
0.0
173
     0
291
     1
 45
0.0
1001
ACAD
1000
AcDbSavedByObjectVersion
1070
     0
  0
VISUALSTYLE
  5
2C
102
{ACAD_REACTORS
330
2A
102
}
330
2A
100
AcDbVisualStyle
  2
FlatWithEdges
 70
     1
 71
     2
 72
     1
 73
     1
 90
        2
 40
-0.6
 41
30.0
 62
     5
 63
     7
421
 16777215
 74
     1
 91
        4
 64
     7
 65
   257
 75
     1
175
     1
 42
1.0
 92
        0
 66
   257
 43
1.0
 76
     1
 77
     6
 78
     2
 67
     7
 79
     5
170
     0
171
     0
290
     0
174
     0
 93
       13
 44
0.0
173
     0
291
     1
 45
0.0
1001
ACAD
1000
AcDbSavedByObjectVersion
1070
     0
  0
VISUALSTYLE
  5
2D
102
{ACAD_REACTORS
330
2A
102
}
330
2A
100
AcDbVisualStyle
  2
Gouraud
 70
     2
 71
     2
 72
     2
 73
     1
 90
        2
 40
-0.6
 41
30.0
 62
     5
 63
     7
421
 16777215
 74
     0
 91
        4
 64
     7
 65
   257
 75
     1
175
     1
 42
1.0
 92
        0
 66
     7
 43
1.0
 76
     1
 77
     6
 78
     2
 67
     7
 79
     5
170
     0
171
     0
290
     0
174
     0
 93
       13
 44
0.0
173
     0
291
     1
 45
0.0
1001
ACAD
1000
AcDbSavedByObjectVersion
1070
     0
  0
VISUALSTYLE
  5
2E
102
{ACAD_REACTORS
330
2A
102
}
330
2A
100
AcDbVisualStyle
  2
GouraudWithEdges
 70
     3
 71
     2
 72
     2
 73
     1
 90
        2
 40
-0.6
 41
30.0
 62
     5
 63
     7
421
 16777215
 74
     1
 91
        4
 64
     7
 65
   257
 75
     1
175
     1
 42
1.0
 92
        0
 66
   257
 43
1.0
 76
     1
 77
     6
 78
     2
 67
     7
 79
     5
170
     0
171
     0
290
     0
174
     0
 93
       13
 44
0.0
173
     0
291
     1
 45
0.0
1001
ACAD
1000
AcDbSavedByObjectVersion
1070
     0
  0
VISUALSTYLE
  5
38
102
{ACAD_REACTORS
330
2A
102
}
330
2A
100
AcDbVisualStyle
  2
Linepattern
 70
    14
 71
     2
 72
     2
 73
     0
 90
        0
 40
-0.6
 41
-30.0
 62
     5
 63
     7
421
 16777215
 74
     1
 91
        4
 64
     7
 65
   257
 75
     7
175
     7
 42
1.0
 92
        8
 66
     7
 43
1.0
 76
     1
 77
     6
 78
     2
 67
     7
 79
     5
170
     0
171
     0
290
     0
174
     0
 93
        1
 44
0.0
173
     0
291
     1
 45
0.0
1001
ACAD
1000
AcDbSavedByObjectVersion
1070
     0
  0
VISUALSTYLE
  5
33
102
{ACAD_REACTORS
330
2A
102
}
330
2A
100
AcDbVisualStyle
  2
Realistic
 70
     8
 71
     2
 72
     2
 73
     0
 90
        0
 40
-0.6
 41
-30.0
 62
     5
 63
     7
421
 16777215
 74
     1
 91
        0
 64
     7
 65
   257
 75
     1
175
     1
 42
1.0
 92
        8
 66
     8
424
  7895160
 43
1.0
 76
     1
 77
     6
 78
     2
 67
     7
 79
     5
170
     0
171
     0
290
     0
174
     0
 93
       13
 44
0.0
173
     0
291
     0
 45
0.0
1001
ACAD
1000
AcDbSavedByObjectVersion
1070
     0
  0
VISUALSTYLE
  5
37
102
{ACAD_REACTORS
330
2A
102
}
330
2A
100
AcDbVisualStyle
  2
Thicken
 70
    13
 71
     2
 72
     2
 73
     0
 90
        0
 40
-0.6
 41
-30.0
 62
     5
 63
     7
421
 16777215
 74
     1
 91
        4
 64
     7
 65
   257
 75
     1
175
     1
 42
1.0
 92
       12
 66
     7
 43
1.0
 76
     1
 77
     6
 78
     2
 67
     7
 79
     5
170
     0
171
     0
290
     0
174
     0
 93
        1
 44
0.0
173
     0
291
     1
 45
0.0
1001
ACAD
1000
AcDbSavedByObjectVersion
1070
     0
  0
ENDSEC
  0
EOF
