  0
SECTION
  2
HEADER
  9
$ACADVER
  1
AC1018
  9
$ACADMAINTVER
 70
     0
  9
$DWGCODEPAGE
  3
ANSI_1252
  9
$INSBASE
 10
0.0
 20
0.0
 30
0.0
  9
$EXTMIN
 10
-27.27665362195505
 20
0.0000077979689426
 30
0.0
  9
$EXTMAX
 10
33.60569550904799
 20
64.13053569904962
 30
0.0
  9
$LIMMIN
 10
0.0
 20
0.0
  9
$LIMMAX
 10
12.0
 20
9.0
  9
$ORTHOMODE
 70
     0
  9
$REGENMODE
 70
     1
  9
$FILLMODE
 70
     1
  9
$QTEXTMODE
 70
     0
  9
$MIRRTEXT
 70
     1
  9
$LTSCALE
 40
1.0
  9
$ATTMODE
 70
     1
  9
$TEXTSIZE
 40
0.2
  9
$TRACEWID
 40
0.05
  9
$TEXTSTYLE
  7
Standard
  9
$CLAYER
  8
0
  9
$CELTYPE
  6
ByLayer
  9
$CECOLOR
 62
   256
  9
$CELTSCALE
 40
1.0
  9
$DISPSILH
 70
     0
  9
$DIMSCALE
 40
1.0
  9
$DIMASZ
 40
0.18
  9
$DIMEXO
 40
0.0625
  9
$DIMDLI
 40
0.38
  9
$DIMRND
 40
0.0
  9
$DIMDLE
 40
0.0
  9
$DIMEXE
 40
0.18
  9
$DIMTP
 40
0.0
  9
$DIMTM
 40
0.0
  9
$DIMTXT
 40
0.18
  9
$DIMCEN
 40
0.09
  9
$DIMTSZ
 40
0.0
  9
$DIMTOL
 70
     0
  9
$DIMLIM
 70
     0
  9
$DIMTIH
 70
     1
  9
$DIMTOH
 70
     1
  9
$DIMSE1
 70
     0
  9
$DIMSE2
 70
     0
  9
$DIMTAD
 70
     0
  9
$DIMZIN
 70
     0
  9
$DIMBLK
  1

  9
$DIMASO
 70
     1
  9
$DIMSHO
 70
     1
  9
$DIMPOST
  1

  9
$DIMAPOST
  1

  9
$DIMALT
 70
     0
  9
$DIMALTD
 70
     2
  9
$DIMALTF
 40
25.4
  9
$DIMLFAC
 40
1.0
  9
$DIMTOFL
 70
     0
  9
$DIMTVP
 40
0.0
  9
$DIMTIX
 70
     0
  9
$DIMSOXD
 70
     0
  9
$DIMSAH
 70
     0
  9
$DIMBLK1
  1

  9
$DIMBLK2
  1

  9
$DIMSTYLE
  2
Standard
  9
$DIMCLRD
 70
     0
  9
$DIMCLRE
 70
     0
  9
$DIMCLRT
 70
     0
  9
$DIMTFAC
 40
1.0
  9
$DIMGAP
 40
0.09
  9
$DIMJUST
 70
     0
  9
$DIMSD1
 70
     0
  9
$DIMSD2
 70
     0
  9
$DIMTOLJ
 70
     1
  9
$DIMTZIN
 70
     0
  9
$DIMALTZ
 70
     0
  9
$DIMALTTZ
 70
     0
  9
$DIMUPT
 70
     0
  9
$DIMDEC
 70
     4
  9
$DIMTDEC
 70
     4
  9
$DIMALTU
 70
     2
  9
$DIMALTTD
 70
     2
  9
$DIMTXSTY
  7
Standard
  9
$DIMAUNIT
 70
     0
  9
$DIMADEC
 70
     0
  9
$DIMALTRND
 40
0.0
  9
$DIMAZIN
 70
     0
  9
$DIMDSEP
 70
    46
  9
$DIMATFIT
 70
     3
  9
$DIMFRAC
 70
     0
  9
$DIMLDRBLK
  1

  9
$DIMLUNIT
 70
     2
  9
$DIMLWD
 70
    -2
  9
$DIMLWE
 70
    -2
  9
$DIMTMOVE
 70
     2
  9
$LUNITS
 70
     2
  9
$LUPREC
 70
     3
  9
$SKETCHINC
 40
0.1
  9
$FILLETRAD
 40
0.5
  9
$AUNITS
 70
     0
  9
$AUPREC
 70
     0
  9
$MENU
  1
.
  9
$ELEVATION
 40
0.0
  9
$PELEVATION
 40
0.0
  9
$THICKNESS
 40
0.0
  9
$LIMCHECK
 70
     0
  9
$CHAMFERA
 40
0.5
  9
$CHAMFERB
 40
0.5
  9
$CHAMFERC
 40
1.0
  9
$CHAMFERD
 40
0.0
  9
$SKPOLY
 70
     0
  9
$TDCREATE
 40
2459811.492812118
  9
$TDUCREATE
 40
2459811.617812118
  9
$TDUPDATE
 40
2459811.49281213
  9
$TDUUPDATE
 40
2459811.61781213
  9
$TDINDWG
 40
0.0000000116
  9
$TDUSRTIMER
 40
0.0000000116
  9
$USRTIMER
 70
     1
  9
$ANGBASE
 50
0.0
  9
$ANGDIR
 70
     0
  9
$PDMODE
 70
     0
  9
$PDSIZE
 40
0.0
  9
$PLINEWID
 40
0.0
  9
$SPLFRAME
 70
     0
  9
$SPLINETYPE
 70
     6
  9
$SPLINESEGS
 70
     8
  9
$HANDSEED
  5
80
  9
$SURFTAB1
 70
     6
  9
$SURFTAB2
 70
     6
  9
$SURFTYPE
 70
     6
  9
$SURFU
 70
     6
  9
$SURFV
 70
     6
  9
$UCSBASE
  2

  9
$UCSNAME
  2

  9
$UCSORG
 10
0.0
 20
0.0
 30
0.0
  9
$UCSXDIR
 10
1.0
 20
0.0
 30
0.0
  9
$UCSYDIR
 10
0.0
 20
1.0
 30
0.0
  9
$UCSORTHOREF
  2

  9
$UCSORTHOVIEW
 70
     0
  9
$UCSORGTOP
 10
0.0
 20
0.0
 30
0.0
  9
$UCSORGBOTTOM
 10
0.0
 20
0.0
 30
0.0
  9
$UCSORGLEFT
 10
0.0
 20
0.0
 30
0.0
  9
$UCSORGRIGHT
 10
0.0
 20
0.0
 30
0.0
  9
$UCSORGFRONT
 10
0.0
 20
0.0
 30
0.0
  9
$UCSORGBACK
 10
0.0
 20
0.0
 30
0.0
  9
$PUCSBASE
  2

  9
$PUCSNAME
  2

  9
$PUCSORG
 10
0.0
 20
0.0
 30
0.0
  9
$PUCSXDIR
 10
1.0
 20
0.0
 30
0.0
  9
$PUCSYDIR
 10
0.0
 20
1.0
 30
0.0
  9
$PUCSORTHOREF
  2

  9
$PUCSORTHOVIEW
 70
     0
  9
$PUCSORGTOP
 10
0.0
 20
0.0
 30
0.0
  9
$PUCSORGBOTTOM
 10
0.0
 20
0.0
 30
0.0
  9
$PUCSORGLEFT
 10
0.0
 20
0.0
 30
0.0
  9
$PUCSORGRIGHT
 10
0.0
 20
0.0
 30
0.0
  9
$PUCSORGFRONT
 10
0.0
 20
0.0
 30
0.0
  9
$PUCSORGBACK
 10
0.0
 20
0.0
 30
0.0
  9
$USERI1
 70
     0
  9
$USERI2
 70
     0
  9
$USERI3
 70
     0
  9
$USERI4
 70
     0
  9
$USERI5
 70
     0
  9
$USERR1
 40
0.0
  9
$USERR2
 40
0.0
  9
$USERR3
 40
0.0
  9
$USERR4
 40
0.0
  9
$USERR5
 40
0.0
  9
$WORLDVIEW
 70
     1
  9
$SHADEDGE
 70
     3
  9
$SHADEDIF
 70
    70
  9
$TILEMODE
 70
     1
  9
$MAXACTVP
 70
    64
  9
$PINSBASE
 10
0.0
 20
0.0
 30
0.0
  9
$PLIMCHECK
 70
     0
  9
$PEXTMIN
 10
1.000000000000000E+20
 20
1.000000000000000E+20
 30
1.000000000000000E+20
  9
$PEXTMAX
 10
-1.000000000000000E+20
 20
-1.000000000000000E+20
 30
-1.000000000000000E+20
  9
$PLIMMIN
 10
0.0
 20
0.0
  9
$PLIMMAX
 10
12.0
 20
9.0
  9
$UNITMODE
 70
     0
  9
$VISRETAIN
 70
     1
  9
$PLINEGEN
 70
     0
  9
$PSLTSCALE
 70
     1
  9
$TREEDEPTH
 70
  3020
  9
$CMLSTYLE
  2
Standard
  9
$CMLJUST
 70
     0
  9
$CMLSCALE
 40
1.0
  9
$PROXYGRAPHICS
 70
     1
  9
$MEASUREMENT
 70
     0
  9
$CELWEIGHT
370
    -1
  9
$ENDCAPS
280
     0
  9
$JOINSTYLE
280
     0
  9
$LWDISPLAY
290
     0
  9
$INSUNITS
 70
     4
  9
$HYPERLINKBASE
  1

  9
$STYLESHEET
  1

  9
$XEDIT
290
     1
  9
$CEPSNTYPE
380
     0
  9
$PSTYLEMODE
290
     1
  9
$FINGERPRINTGUID
  2
{D4CC3B22-1BA7-4F16-B6DF-5703655ABA98}
  9
$VERSIONGUID
  2
{FAEB1C32-E019-11D5-929B-00C0DF256EC4}
  9
$EXTNAMES
290
     1
  9
$PSVPSCALE
 40
0.0
  9
$OLESTARTUP
290
     0
  9
$SORTENTS
280
   127
  9
$INDEXCTL
280
     0
  9
$HIDETEXT
280
     1
  9
$XCLIPFRAME
290
     0
  9
$HALOGAP
280
     0
  9
$OBSCOLOR
 70
   257
  9
$OBSLTYPE
280
     0
  9
$INTERSECTIONDISPLAY
280
     0
  9
$INTERSECTIONCOLOR
 70
   257
  9
$DIMASSOC
280
     2
  9
$PROJECTNAME
  1

  0
ENDSEC
  0
SECTION
  2
CLASSES
  0
CLASS
  1
ACDBDICTIONARYWDFLT
  2
AcDbDictionaryWithDefault
  3
ObjectDBX Classes
 90
        0
 91
        4
280
     0
281
     0
  0
CLASS
  1
VISUALSTYLE
  2
AcDbVisualStyle
  3
ObjectDBX Classes
 90
     4095
 91
        4
280
     0
281
     0
  0
ENDSEC
  0
SECTION
  2
TABLES
  0
TABLE
  2
VPORT
  5
8
330
0
100
AcDbSymbolTable
 70
     1
  0
VPORT
  5
29
330
8
100
AcDbSymbolTableRecord
100
AcDbViewportTableRecord
  2
*Active
 70
     0
 10
0.0
 20
0.0
 11
1.0
 21
1.0
 12
3.164520943546471
 22
32.06527174850928
 13
0.0
 23
0.0
 14
0.5
 24
0.5
 15
0.5
 25
0.5
 16
0.0
 26
0.0
 36
1.0
 17
0.0
 27
0.0
 37
0.0
 40
65.41313845910229
 41
0.9493505062816909
 42
50.0
 43
0.0
 44
0.0
 50
0.0
 51
0.0
 71
     0
 72
   100
 73
     1
 74
     3
 75
     0
 76
     0
 77
     0
 78
     0
281
     0
 65
     1
110
0.0
120
0.0
130
0.0
111
1.0
121
0.0
131
0.0
112
0.0
122
1.0
132
0.0
 79
     0
146
0.0
  0
ENDTAB
  0
TABLE
  2
LTYPE
  5
5
330
0
100
AcDbSymbolTable
 70
     1
  0
LTYPE
  5
14
330
5
100
AcDbSymbolTableRecord
100
AcDbLinetypeTableRecord
  2
ByBlock
 70
     0
  3

 72
    65
 73
     0
 40
0.0
  0
LTYPE
  5
15
330
5
100
AcDbSymbolTableRecord
100
AcDbLinetypeTableRecord
  2
ByLayer
 70
     0
  3

 72
    65
 73
     0
 40
0.0
  0
LTYPE
  5
16
330
5
100
AcDbSymbolTableRecord
100
AcDbLinetypeTableRecord
  2
Continuous
 70
     0
  3
Solid line
 72
    65
 73
     0
 40
0.0
  0
ENDTAB
  0
TABLE
  2
LAYER
  5
2
330
0
100
AcDbSymbolTable
 70
     2
  0
LAYER
  5
10
330
2
100
AcDbSymbolTableRecord
100
AcDbLayerTableRecord
  2
0
 70
     0
 62
     7
  6
Continuous
370
    -3
390
F
  0
LAYER
  5
3B
330
2
100
AcDbSymbolTableRecord
100
AcDbLayerTableRecord
  2
Make2D visible lines
 70
     0
 62
     7
  6
Continuous
370
    -3
390
F
  0
ENDTAB
  0
TABLE
  2
STYLE
  5
3
330
0
100
AcDbSymbolTable
 70
     1
  0
STYLE
  5
11
330
3
100
AcDbSymbolTableRecord
100
AcDbTextStyleTableRecord
  2
Standard
 70
     0
 40
0.0
 41
1.0
 50
0.0
 71
     0
 42
0.2
  3
txt
  4

  0
ENDTAB
  0
TABLE
  2
VIEW
  5
6
330
0
100
AcDbSymbolTable
 70
     0
  0
ENDTAB
  0
TABLE
  2
UCS
  5
7
330
0
100
AcDbSymbolTable
 70
     0
  0
ENDTAB
  0
TABLE
  2
APPID
  5
9
330
0
100
AcDbSymbolTable
 70
     1
  0
APPID
  5
12
330
9
100
AcDbSymbolTableRecord
100
AcDbRegAppTableRecord
  2
ACAD
 70
     0
  0
ENDTAB
  0
TABLE
  2
DIMSTYLE
  5
A
330
0
100
AcDbSymbolTable
 70
     1
100
AcDbDimStyleTable
  0
DIMSTYLE
105
27
330
A
100
AcDbSymbolTableRecord
100
AcDbDimStyleTableRecord
  2
Standard
 70
     0
340
11
  0
ENDTAB
  0
TABLE
  2
BLOCK_RECORD
  5
1
330
0
100
AcDbSymbolTable
 70
     1
  0
BLOCK_RECORD
  5
1F
330
1
100
AcDbSymbolTableRecord
100
AcDbBlockTableRecord
  2
*Model_Space
340
22
  0
BLOCK_RECORD
  5
1B
330
1
100
AcDbSymbolTableRecord
100
AcDbBlockTableRecord
  2
*Paper_Space
340
1E
  0
BLOCK_RECORD
  5
23
330
1
100
AcDbSymbolTableRecord
100
AcDbBlockTableRecord
  2
*Paper_Space0
340
26
  0
ENDTAB
  0
ENDSEC
  0
SECTION
  2
BLOCKS
  0
BLOCK
  5
20
330
1F
100
AcDbEntity
  8
0
100
AcDbBlockBegin
  2
*Model_Space
 70
     0
 10
0.0
 20
0.0
 30
0.0
  3
*Model_Space
  1

  0
ENDBLK
  5
21
330
1F
100
AcDbEntity
  8
0
100
AcDbBlockEnd
  0
BLOCK
  5
1C
330
1B
100
AcDbEntity
 67
     1
  8
0
100
AcDbBlockBegin
  2
*Paper_Space
 70
     0
 10
0.0
 20
0.0
 30
0.0
  3
*Paper_Space
  1

  0
ENDBLK
  5
1D
330
1B
100
AcDbEntity
 67
     1
  8
0
100
AcDbBlockEnd
  0
BLOCK
  5
24
330
23
100
AcDbEntity
  8
0
100
AcDbBlockBegin
  2
*Paper_Space0
 70
     0
 10
0.0
 20
0.0
 30
0.0
  3
*Paper_Space0
  1

  0
ENDBLK
  5
25
330
23
100
AcDbEntity
  8
0
100
AcDbBlockEnd
  0
ENDSEC
  0
SECTION
  2
ENTITIES
  0
POLYLINE
  5
3C
330
1F
100
AcDbEntity
  8
Make2D visible lines
100
AcDb2dPolyline
 66
     1
 10
0.0
 20
0.0
 30
0.0
  0
VERTEX
  5
3D
330
3C
100
AcDbEntity
  8
Make2D visible lines
100
AcDbVertex
100
AcDb2dVertex
 10
-19.96966180901038
 20
52.97761410533221
 30
0.0
  0
VERTEX
  5
3E
330
3C
100
AcDbEntity
  8
Make2D visible lines
100
AcDbVertex
100
AcDb2dVertex
 10
-20.32117142902683
 20
53.4315632649929
 30
0.0
  0
SEQEND
  5
3F
330
3C
100
AcDbEntity
  8
Make2D visible lines
  0
SPLINE
  5
40
330
1F
100
AcDbEntity
  8
Make2D visible lines
100
AcDbSpline
210
0.0
220
0.0
230
1.0
 70
    12
 71
     2
 72
     6
 73
     3
 74
     0
 42
0.0000000001
 43
0.0000000001
 40
0.12864132153549
 40
0.12864132153549
 40
0.12864132153549
 40
0.6688183136340263
 40
0.6688183136340263
 40
0.6688183136340263
 10
-20.32117142902683
 20
53.4315632649929
 30
0.0
 41
0.9763679258354347
 10
-20.47478475026532
 20
53.64467318340368
 30
0.0
 41
0.9290486655138835
 10
-20.57033492884091
 20
53.88985327136282
 30
0.0
 41
0.901023311597957
  0
SPLINE
  5
41
330
1F
100
AcDbEntity
  8
Make2D visible lines
100
AcDbSpline
210
0.0
220
0.0
230
1.0
 70
    24
 71
     2
 72
     6
 73
     3
 74
     0
 42
0.0000000001
 43
0.0000000001
 40
0.0
 40
0.0
 40
0.0
 40
2.280597048550982
 40
2.280597048550982
 40
2.280597048550982
 10
-20.57033492884091
 20
53.88985327136282
 30
0.0
 10
-21.02209173064322
 20
54.93684730933469
 30
0.0
 10
-21.47384853244553
 20
55.98384134730657
 30
0.0
  0
SPLINE
  5
42
330
1F
100
AcDbEntity
  8
Make2D visible lines
100
AcDbSpline
210
0.0
220
0.0
230
1.0
 70
    12
 71
     2
 72
     8
 73
     5
 74
     0
 42
0.0000000001
 43
0.0000000001
 40
0.0
 40
0.0
 40
0.0
 40
1.494464654003035
 40
1.494464654003035
 40
3.081929291258796
 40
3.081929291258796
 40
3.081929291258796
 10
-21.47384853244553
 20
55.98384134730657
 30
0.0
 41
0.9999999997783633
 10
-21.81445854991072
 20
56.77536558909298
 30
0.0
 41
0.8121503362021287
 10
-21.17304936895984
 20
57.35079592538499
 30
0.0
 41
1.0
 10
-20.47869436328563
 20
57.97573937110415
 30
0.0
 41
0.7890223819226095
 10
-19.70261587114283
 20
57.45574478490397
 30
0.0
 41
1.0
  0
SPLINE
  5
43
330
1F
100
AcDbEntity
  8
Make2D visible lines
100
AcDbSpline
210
0.0
220
0.0
230
1.0
 70
    24
 71
     2
 72
     6
 73
     3
 74
     0
 42
0.0000000001
 43
0.0000000001
 40
0.0
 40
0.0
 40
0.0
 40
2.319783195946155
 40
2.319783195946155
 40
2.319783195946155
 10
-19.70261587114283
 20
57.45574478490397
 30
0.0
 10
-18.73991527480688
 20
56.80876112756
 30
0.0
 10
-17.77721467847093
 20
56.16177747021604
 30
0.0
  0
SPLINE
  5
44
330
1F
100
AcDbEntity
  8
Make2D visible lines
100
AcDbSpline
210
0.0
220
0.0
230
1.0
 70
    12
 71
     2
 72
     6
 73
     3
 74
     0
 42
0.0000000001
 43
0.0000000001
 40
-0.5122343217119593
 40
-0.5122343217119593
 40
-0.5122343217119593
 40
0.0
 40
0.0
 40
0.0
 10
-17.77721467847093
 20
56.16177747021604
 30
0.0
 41
0.9180362185884603
 10
-17.57120347369042
 20
56.03213409598578
 30
0.0
 41
0.9503596229947082
 10
-17.40406920471079
 20
55.85517737486455
 30
0.0
 41
1.0
  0
SPLINE
  5
45
330
1F
100
AcDbEntity
  8
Make2D visible lines
100
AcDbSpline
210
0.0
220
0.0
230
1.0
 70
    12
 71
     2
 72
     6
 73
     3
 74
     0
 42
0.0000000001
 43
0.0000000001
 40
-0.1435843807754733
 40
-0.1435843807754733
 40
-0.1435843807754733
 40
0.0
 40
0.0
 40
0.0
 10
-14.70888417540458
 20
7.491757530528483
 30
0.0
 41
1.0
 10
-14.65241474725736
 20
7.536145103229418
 30
0.0
 41
0.9992826527710585
 10
-14.59926453609467
 20
7.584860990639846
 30
0.0
 41
1.0
  0
SPLINE
  5
46
330
1F
100
AcDbEntity
  8
Make2D visible lines
100
AcDbSpline
210
0.0
220
0.0
230
1.0
 70
    12
 71
     2
 72
     6
 73
     3
 74
     0
 42
0.0000000001
 43
0.0000000001
 40
0.0
 40
0.0
 40
0.0
 40
2.796943617802754
 40
2.796943617802754
 40
2.796943617802754
 10
-14.59926453609467
 20
7.584860990639846
 30
0.0
 41
0.9999447090367912
 10
-15.86954640161017
 20
6.422621336560099
 30
0.0
 41
0.7406347107735252
 10
-17.14968321262567
 20
7.573997372635768
 30
0.0
 41
1.0
  0
SPLINE
  5
47
330
1F
100
AcDbEntity
  8
Make2D visible lines
100
AcDbSpline
210
0.0
220
0.0
230
1.0
 70
    12
 71
     2
 72
     8
 73
     5
 74
     0
 42
0.0000000001
 43
0.0000000001
 40
0.0
 40
0.0
 40
0.0
 40
2.981367383418532
 40
2.981367383418532
 40
3.062122142315525
 40
3.062122142315525
 40
3.062122142315525
 10
-17.14968321262567
 20
7.573997372635768
 30
0.0
 41
1.0
 10
-18.5633330023683
 20
8.840204535471626
 30
0.0
 41
0.7072023979898215
 10
-17.29750822643658
 20
10.25419673626115
 30
0.0
 41
1.0
 10
-17.27053816826059
 20
10.28425408321428
 30
0.0
 41
0.9997721817676903
 10
-17.24230906034684
 20
10.31313380539926
 30
0.0
 41
1.0
  0
SPLINE
  5
48
330
1F
100
AcDbEntity
  8
Make2D visible lines
100
AcDbSpline
210
0.0
220
0.0
230
1.0
 70
    12
 71
     2
 72
     6
 73
     3
 74
     0
 42
0.0000000001
 43
0.0000000001
 40
0.0
 40
0.0
 40
0.0
 40
0.2872987577127039
 40
0.2872987577127039
 40
0.2872987577127039
 10
-17.24230906034684
 20
10.31313380539926
 30
0.0
 41
1.0
 10
-17.1416926078112
 20
10.41604679392892
 30
0.0
 41
0.9971292901999523
 10
-17.02669083481641
 20
10.50258589149575
 30
0.0
 41
1.0
  0
SPLINE
  5
49
330
1F
100
AcDbEntity
  8
Make2D visible lines
100
AcDbSpline
210
0.0
220
0.0
230
1.0
 70
    24
 71
     2
 72
     6
 73
     3
 74
     0
 42
0.0000000001
 43
0.0000000001
 40
0.0
 40
0.0
 40
0.0
 40
0.4967750912925271
 40
0.4967750912925271
 40
0.4967750912925271
 10
-14.59702326928937
 20
7.583093943138724
 30
0.0
 10
-14.77064779650024
 20
7.405468223608873
 30
0.0
 10
-14.94427232371112
 20
7.227842504079021
 30
0.0
  0
SPLINE
  5
4A
330
1F
100
AcDbEntity
  8
Make2D visible lines
100
AcDbSpline
210
0.0
220
0.0
230
1.0
 70
    12
 71
     2
 72
     6
 73
     3
 74
     0
 42
0.0000000001
 43
0.0000000001
 40
0.0
 40
0.0
 40
0.0
 40
0.6617634529449721
 40
0.6617634529449721
 40
0.6617634529449721
 10
-14.94427232371112
 20
7.227842504079021
 30
0.0
 41
0.9999999998768396
 10
-15.16812598200691
 20
6.999311714871064
 30
0.0
 41
0.936559595342882
 10
-15.45436088139492
 20
6.856460372796655
 30
0.0
 41
0.902070089489212
  0
SPLINE
  5
4B
330
1F
100
AcDbEntity
  8
Make2D visible lines
100
AcDbSpline
210
0.0
220
0.0
230
1.0
 70
    24
 71
     2
 72
     6
 73
     3
 74
     0
 42
0.0000000001
 43
0.0000000001
 40
0.0
 40
0.0
 40
0.0
 40
2.116772955328329
 40
2.116772955328329
 40
2.116772955328329
 10
-15.45436088139492
 20
6.856460372796654
 30
0.0
 10
-16.39164142886136
 20
6.36482755985693
 30
0.0
 10
-17.32892197632779
 20
5.873194746917205
 30
0.0
  0
SPLINE
  5
4C
330
1F
100
AcDbEntity
  8
Make2D visible lines
100
AcDbSpline
210
0.0
220
0.0
230
1.0
 70
    12
 71
     2
 72
     8
 73
     5
 74
     0
 42
0.0000000001
 43
0.0000000001
 40
0.0
 40
0.0
 40
0.0
 40
1.456646262859706
 40
1.456646262859706
 40
3.005816077289897
 40
3.005816077289897
 40
3.005816077289897
 10
-17.32892197632779
 20
5.873194746917205
 30
0.0
 41
1.0
 10
-18.06725990802472
 20
5.486826940586238
 30
0.0
 41
0.8212978760257547
 10
-18.68704470903687
 20
6.043853311578854
 30
0.0
 41
1.0
 10
-19.35997154741156
 20
6.647118101457664
 30
0.0
 41
0.7987850216833725
 10
-18.96598184093659
 20
7.460463888819993
 30
0.0
 41
1.0
  0
LINE
  5
4D
330
1F
100
AcDbEntity
  8
Make2D visible lines
100
AcDbLine
 10
-18.96598184093659
 20
7.460463888819993
 30
0.0
 11
-18.01058002503629
 21
9.387819326703475
 31
0.0
  0
SPLINE
  5
4E
330
1F
100
AcDbEntity
  8
Make2D visible lines
100
AcDbSpline
210
0.0
220
0.0
230
1.0
 70
    12
 71
     2
 72
     6
 73
     3
 74
     0
 42
0.0000000001
 43
0.0000000001
 40
-0.558352940363929
 40
-0.558352940363929
 40
-0.558352940363929
 40
0.0
 40
0.0
 40
0.0
 10
-18.0105800250363
 20
9.387819326703475
 30
0.0
 41
0.9108684765089425
 10
-17.8942912109927
 20
9.626985932108116
 30
0.0
 41
0.9451646238155227
 10
-17.71691181575952
 20
9.825127954771453
 30
0.0
 41
1.0
  0
SPLINE
  5
4F
330
1F
100
AcDbEntity
  8
Make2D visible lines
100
AcDbSpline
210
0.0
220
0.0
230
1.0
 70
    12
 71
     2
 72
     6
 73
     3
 74
     0
 42
0.0000000001
 43
0.0000000001
 40
-0.0807547588960874
 40
-0.0807547588960874
 40
-0.0807547588960874
 40
0.0
 40
0.0
 40
0.0
 10
-17.71691181575952
 20
9.825127954771453
 30
0.0
 41
1.0
 10
-17.68994175758383
 20
9.855185301724248
 30
0.0
 41
0.999772181767694
 10
-17.66171264966789
 20
9.884065023911518
 30
0.0
 41
1.0
  0
SPLINE
  5
50
330
1F
100
AcDbEntity
  8
Make2D visible lines
100
AcDbSpline
210
0.0
220
0.0
230
1.0
 70
    24
 71
     2
 72
     6
 73
     3
 74
     0
 42
0.0000000001
 43
0.0000000001
 40
0.0
 40
0.0
 40
0.0
 40
0.5192669669429364
 40
0.5192669669429364
 40
0.5192669669429364
 10
-17.66171264966789
 20
9.884065023911518
 30
0.0
 10
-17.48022673645533
 20
10.06973329576769
 30
0.0
 10
-17.29874082324277
 20
10.25540156762387
 30
0.0
  0
SPLINE
  5
51
330
1F
100
AcDbEntity
  8
Make2D visible lines
100
AcDbSpline
210
0.0
220
0.0
230
1.0
 70
    12
 71
     2
 72
     6
 73
     3
 74
     0
 42
0.0000000001
 43
0.0000000001
 40
0.0
 40
0.0
 40
0.0
 40
1.286805839632297
 40
1.286805839632297
 40
1.286805839632297
 10
-11.81785542632211
 20
48.24887300399678
 30
0.0
 41
1.0
 10
-11.38790760728818
 20
47.77021635105802
 30
0.0
 41
0.9999999977068943
 10
-10.95789496143605
 20
47.29161793599553
 30
0.0
 41
1.0
  0
SPLINE
  5
52
330
1F
100
AcDbEntity
  8
Make2D visible lines
100
AcDbSpline
210
0.0
220
0.0
230
1.0
 70
    24
 71
     2
 72
     6
 73
     3
 74
     0
 42
0.0000000001
 43
0.0000000001
 40
0.0
 40
0.0
 40
0.0
 40
1.540475914324116
 40
1.540475914324116
 40
1.540475914324116
 10
-12.71648860182732
 20
45.93613215120522
 30
0.0
 10
-13.23121125788442
 20
46.50913049151233
 30
0.0
 10
-13.74593391394153
 20
47.08212883181944
 30
0.0
  0
POLYLINE
  5
53
330
1F
100
AcDbEntity
  8
Make2D visible lines
100
AcDb2dPolyline
 66
     1
 10
0.0
 20
0.0
 30
0.0
  0
VERTEX
  5
54
330
53
100
AcDbEntity
  8
Make2D visible lines
100
AcDbVertex
100
AcDb2dVertex
 10
26.29870369610293
 20
52.97761410533221
 30
0.0
  0
VERTEX
  5
55
330
53
100
AcDbEntity
  8
Make2D visible lines
100
AcDbVertex
100
AcDb2dVertex
 10
26.65021331611939
 20
53.4315632649929
 30
0.0
  0
SEQEND
  5
56
330
53
100
AcDbEntity
  8
Make2D visible lines
  0
SPLINE
  5
57
330
1F
100
AcDbEntity
  8
Make2D visible lines
100
AcDbSpline
210
0.0
220
0.0
230
1.0
 70
    12
 71
     2
 72
     6
 73
     3
 74
     0
 42
0.0000000001
 43
0.0000000001
 40
0.12864132153549
 40
0.12864132153549
 40
0.12864132153549
 40
0.6688183136340263
 40
0.6688183136340263
 40
0.6688183136340263
 10
26.65021331611939
 20
53.4315632649929
 30
0.0
 41
0.9763679258354347
 10
26.80382663735789
 20
53.64467318340368
 30
0.0
 41
0.9290486655138835
 10
26.89937681593347
 20
53.88985327136282
 30
0.0
 41
0.901023311597957
  0
SPLINE
  5
58
330
1F
100
AcDbEntity
  8
Make2D visible lines
100
AcDbSpline
210
0.0
220
0.0
230
1.0
 70
    24
 71
     2
 72
     6
 73
     3
 74
     0
 42
0.0000000001
 43
0.0000000001
 40
0.0
 40
0.0
 40
0.0
 40
2.280597048550982
 40
2.280597048550982
 40
2.280597048550982
 10
26.89937681593346
 20
53.88985327136282
 30
0.0
 10
27.35113361773578
 20
54.93684730933469
 30
0.0
 10
27.80289041953809
 20
55.98384134730657
 30
0.0
  0
SPLINE
  5
59
330
1F
100
AcDbEntity
  8
Make2D visible lines
100
AcDbSpline
210
0.0
220
0.0
230
1.0
 70
    12
 71
     2
 72
     8
 73
     5
 74
     0
 42
0.0000000001
 43
0.0000000001
 40
0.0
 40
0.0
 40
0.0
 40
1.494464654003035
 40
1.494464654003035
 40
3.081929291258796
 40
3.081929291258796
 40
3.081929291258796
 10
27.80289041953808
 20
55.98384134730657
 30
0.0
 41
0.9999999997783633
 10
28.14350043700329
 20
56.77536558909298
 30
0.0
 41
0.8121503362021287
 10
27.5020912560524
 20
57.35079592538499
 30
0.0
 41
1.0
 10
26.80773625037819
 20
57.97573937110415
 30
0.0
 41
0.7890223819226095
 10
26.03165775823538
 20
57.45574478490397
 30
0.0
 41
1.0
  0
SPLINE
  5
5A
330
1F
100
AcDbEntity
  8
Make2D visible lines
100
AcDbSpline
210
0.0
220
0.0
230
1.0
 70
    24
 71
     2
 72
     6
 73
     3
 74
     0
 42
0.0000000001
 43
0.0000000001
 40
0.0
 40
0.0
 40
0.0
 40
2.319783195946155
 40
2.319783195946155
 40
2.319783195946155
 10
26.03165775823538
 20
57.45574478490397
 30
0.0
 10
25.06895716189943
 20
56.80876112756
 30
0.0
 10
24.10625656556348
 20
56.16177747021604
 30
0.0
  0
SPLINE
  5
5B
330
1F
100
AcDbEntity
  8
Make2D visible lines
100
AcDbSpline
210
0.0
220
0.0
230
1.0
 70
    12
 71
     2
 72
     6
 73
     3
 74
     0
 42
0.0000000001
 43
0.0000000001
 40
-0.5122343217119593
 40
-0.5122343217119593
 40
-0.5122343217119593
 40
0.0
 40
0.0
 40
0.0
 10
24.10625656556349
 20
56.16177747021604
 30
0.0
 41
0.9180362185884603
 10
23.90024536078298
 20
56.03213409598578
 30
0.0
 41
0.9503596229947082
 10
23.73311109180335
 20
55.85517737486455
 30
0.0
 41
1.0
  0
SPLINE
  5
5C
330
1F
100
AcDbEntity
  8
Make2D visible lines
100
AcDbSpline
210
0.0
220
0.0
230
1.0
 70
    12
 71
     2
 72
     6
 73
     3
 74
     0
 42
0.0000000001
 43
0.0000000001
 40
-0.1435843807754733
 40
-0.1435843807754733
 40
-0.1435843807754733
 40
0.0
 40
0.0
 40
0.0
 10
21.03792606249714
 20
7.491757530528483
 30
0.0
 41
1.0
 10
20.98145663434993
 20
7.536145103229418
 30
0.0
 41
0.9992826527710585
 10
20.92830642318722
 20
7.584860990639846
 30
0.0
 41
1.0
  0
SPLINE
  5
5D
330
1F
100
AcDbEntity
  8
Make2D visible lines
100
AcDbSpline
210
0.0
220
0.0
230
1.0
 70
    12
 71
     2
 72
     6
 73
     3
 74
     0
 42
0.0000000001
 43
0.0000000001
 40
0.0
 40
0.0
 40
0.0
 40
2.796943617802754
 40
2.796943617802754
 40
2.796943617802754
 10
20.92830642318722
 20
7.584860990639846
 30
0.0
 41
0.9999447090367912
 10
22.19858828870272
 20
6.422621336560099
 30
0.0
 41
0.7406347107735252
 10
23.47872509971823
 20
7.573997372635768
 30
0.0
 41
1.0
  0
SPLINE
  5
5E
330
1F
100
AcDbEntity
  8
Make2D visible lines
100
AcDbSpline
210
0.0
220
0.0
230
1.0
 70
    12
 71
     2
 72
     8
 73
     5
 74
     0
 42
0.0000000001
 43
0.0000000001
 40
0.0
 40
0.0
 40
0.0
 40
2.981367383418532
 40
2.981367383418532
 40
3.062122142315525
 40
3.062122142315525
 40
3.062122142315525
 10
23.47872509971823
 20
7.573997372635768
 30
0.0
 41
1.0
 10
24.89237488946086
 20
8.840204535471626
 30
0.0
 41
0.7072023979898215
 10
23.62655011352913
 20
10.25419673626115
 30
0.0
 41
1.0
 10
23.59958005535315
 20
10.28425408321428
 30
0.0
 41
0.9997721817676903
 10
23.5713509474394
 20
10.31313380539926
 30
0.0
 41
1.0
  0
SPLINE
  5
5F
330
1F
100
AcDbEntity
  8
Make2D visible lines
100
AcDbSpline
210
0.0
220
0.0
230
1.0
 70
    12
 71
     2
 72
     6
 73
     3
 74
     0
 42
0.0000000001
 43
0.0000000001
 40
0.0
 40
0.0
 40
0.0
 40
0.2872987577127039
 40
0.2872987577127039
 40
0.2872987577127039
 10
23.5713509474394
 20
10.31313380539926
 30
0.0
 41
1.0
 10
23.47073449490376
 20
10.41604679392892
 30
0.0
 41
0.9971292901999523
 10
23.35573272190896
 20
10.50258589149575
 30
0.0
 41
1.0
  0
SPLINE
  5
60
330
1F
100
AcDbEntity
  8
Make2D visible lines
100
AcDbSpline
210
0.0
220
0.0
230
1.0
 70
    24
 71
     2
 72
     6
 73
     3
 74
     0
 42
0.0000000001
 43
0.0000000001
 40
0.0
 40
0.0
 40
0.0
 40
0.4967750912925271
 40
0.4967750912925271
 40
0.4967750912925271
 10
20.92606515638192
 20
7.583093943138724
 30
0.0
 10
21.0996896835928
 20
7.405468223608873
 30
0.0
 10
21.27331421080368
 20
7.227842504079021
 30
0.0
  0
SPLINE
  5
61
330
1F
100
AcDbEntity
  8
Make2D visible lines
100
AcDbSpline
210
0.0
220
0.0
230
1.0
 70
    12
 71
     2
 72
     6
 73
     3
 74
     0
 42
0.0000000001
 43
0.0000000001
 40
0.0
 40
0.0
 40
0.0
 40
0.6617634529449721
 40
0.6617634529449721
 40
0.6617634529449721
 10
21.27331421080368
 20
7.227842504079021
 30
0.0
 41
0.9999999998768396
 10
21.49716786909947
 20
6.999311714871064
 30
0.0
 41
0.936559595342882
 10
21.78340276848747
 20
6.856460372796655
 30
0.0
 41
0.902070089489212
  0
SPLINE
  5
62
330
1F
100
AcDbEntity
  8
Make2D visible lines
100
AcDbSpline
210
0.0
220
0.0
230
1.0
 70
    24
 71
     2
 72
     6
 73
     3
 74
     0
 42
0.0000000001
 43
0.0000000001
 40
0.0
 40
0.0
 40
0.0
 40
2.116772955328329
 40
2.116772955328329
 40
2.116772955328329
 10
21.78340276848748
 20
6.856460372796654
 30
0.0
 10
22.72068331595391
 20
6.36482755985693
 30
0.0
 10
23.65796386342035
 20
5.873194746917205
 30
0.0
  0
SPLINE
  5
63
330
1F
100
AcDbEntity
  8
Make2D visible lines
100
AcDbSpline
210
0.0
220
0.0
230
1.0
 70
    12
 71
     2
 72
     8
 73
     5
 74
     0
 42
0.0000000001
 43
0.0000000001
 40
0.0
 40
0.0
 40
0.0
 40
1.456646262859706
 40
1.456646262859706
 40
3.005816077289897
 40
3.005816077289897
 40
3.005816077289897
 10
23.65796386342035
 20
5.873194746917205
 30
0.0
 41
1.0
 10
24.39630179511727
 20
5.486826940586238
 30
0.0
 41
0.8212978760257547
 10
25.01608659612943
 20
6.043853311578854
 30
0.0
 41
1.0
 10
25.68901343450412
 20
6.647118101457664
 30
0.0
 41
0.7987850216833725
 10
25.29502372802915
 20
7.460463888819993
 30
0.0
 41
1.0
  0
LINE
  5
64
330
1F
100
AcDbEntity
  8
Make2D visible lines
100
AcDbLine
 10
25.29502372802915
 20
7.460463888819993
 30
0.0
 11
24.33962191212885
 21
9.387819326703475
 31
0.0
  0
SPLINE
  5
65
330
1F
100
AcDbEntity
  8
Make2D visible lines
100
AcDbSpline
210
0.0
220
0.0
230
1.0
 70
    12
 71
     2
 72
     6
 73
     3
 74
     0
 42
0.0000000001
 43
0.0000000001
 40
-0.558352940363929
 40
-0.558352940363929
 40
-0.558352940363929
 40
0.0
 40
0.0
 40
0.0
 10
24.33962191212885
 20
9.387819326703475
 30
0.0
 41
0.9108684765089425
 10
24.22333309808526
 20
9.626985932108116
 30
0.0
 41
0.9451646238155227
 10
24.04595370285207
 20
9.825127954771453
 30
0.0
 41
1.0
  0
SPLINE
  5
66
330
1F
100
AcDbEntity
  8
Make2D visible lines
100
AcDbSpline
210
0.0
220
0.0
230
1.0
 70
    12
 71
     2
 72
     6
 73
     3
 74
     0
 42
0.0000000001
 43
0.0000000001
 40
-0.0807547588960874
 40
-0.0807547588960874
 40
-0.0807547588960874
 40
0.0
 40
0.0
 40
0.0
 10
24.04595370285207
 20
9.825127954771453
 30
0.0
 41
1.0
 10
24.01898364467639
 20
9.855185301724248
 30
0.0
 41
0.999772181767694
 10
23.99075453676045
 20
9.884065023911518
 30
0.0
 41
1.0
  0
SPLINE
  5
67
330
1F
100
AcDbEntity
  8
Make2D visible lines
100
AcDbSpline
210
0.0
220
0.0
230
1.0
 70
    24
 71
     2
 72
     6
 73
     3
 74
     0
 42
0.0000000001
 43
0.0000000001
 40
0.0
 40
0.0
 40
0.0
 40
0.5192669669429364
 40
0.5192669669429364
 40
0.5192669669429364
 10
23.99075453676045
 20
9.884065023911518
 30
0.0
 10
23.80926862354789
 20
10.06973329576769
 30
0.0
 10
23.62778271033532
 20
10.25540156762387
 30
0.0
  0
SPLINE
  5
68
330
1F
100
AcDbEntity
  8
Make2D visible lines
100
AcDbSpline
210
0.0
220
0.0
230
1.0
 70
    12
 71
     2
 72
     6
 73
     3
 74
     0
 42
0.0000000001
 43
0.0000000001
 40
0.0
 40
0.0
 40
0.0
 40
1.286805839632297
 40
1.286805839632297
 40
1.286805839632297
 10
18.14689731341467
 20
48.24887300399678
 30
0.0
 41
1.0
 10
17.71694949438073
 20
47.77021635105802
 30
0.0
 41
0.9999999977068943
 10
17.28693684852861
 20
47.29161793599553
 30
0.0
 41
1.0
  0
SPLINE
  5
69
330
1F
100
AcDbEntity
  8
Make2D visible lines
100
AcDbSpline
210
0.0
220
0.0
230
1.0
 70
    24
 71
     2
 72
     6
 73
     3
 74
     0
 42
0.0000000001
 43
0.0000000001
 40
0.0
 40
0.0
 40
0.0
 40
1.540475914324116
 40
1.540475914324116
 40
1.540475914324116
 10
19.04553048891988
 20
45.93613215120522
 30
0.0
 10
19.56025314497698
 20
46.50913049151233
 30
0.0
 10
20.07497580103409
 20
47.08212883181944
 30
0.0
  0
SPLINE
  5
6A
330
1F
100
AcDbEntity
  8
Make2D visible lines
100
AcDbSpline
210
0.0
220
0.0
230
1.0
 70
     8
 71
     3
 72
    19
 73
    15
 74
     0
 42
0.0000000001
 43
0.0000000001
 40
-9.110325665264789
 40
-9.110325665264789
 40
-9.110325665264789
 40
-9.110325665264789
 40
-8.831369532824477
 40
-8.30612903996865
 40
-8.002789678334132
 40
-7.423125364532576
 40
-7.138432508441089
 40
-6.909429295455377
 40
-6.309121224596099
 40
-5.902742764056216
 40
-5.344645810490197
 40
-4.041411711912763
 40
-2.197958299617288
 40
0.0
 40
0.0
 40
0.0
 40
0.0
 10
-26.01545332237226
 20
39.88140732546473
 30
0.0
 10
-26.01659673390598
 20
39.7884552461797
 30
0.0
 10
-26.0200485578369
 20
39.52046815667179
 30
0.0
 10
-26.02701008022649
 20
39.15092067766791
 30
0.0
 10
-26.02976906259527
 20
38.68259512635082
 30
0.0
 10
-25.9822149957177
 20
38.29054979000634
 30
0.0
 10
-25.80092473916448
 20
37.96708450910322
 30
0.0
 10
-25.48864283490762
 20
37.74079707767991
 30
0.0
 10
-25.05219674336426
 20
37.77096369772759
 30
0.0
 10
-24.56865853693016
 20
37.95129308809911
 30
0.0
 10
-23.90215010002161
 20
38.31813864336971
 30
0.0
 10
-22.91684025443145
 20
39.06423976745241
 30
0.0
 10
-21.60788430564081
 20
40.27600863374651
 30
0.0
 10
-20.68160322078265
 20
41.25410111512011
 30
0.0
 10
-20.18930266246775
 20
41.79692973691691
 30
0.0
  0
SPLINE
  5
6B
330
1F
100
AcDbEntity
  8
Make2D visible lines
100
AcDbSpline
210
0.0
220
0.0
230
1.0
 70
     8
 71
     3
 72
    15
 73
    11
 74
     0
 42
0.0000000001
 43
0.0000000001
 40
-52.17238885311544
 40
-52.17238885311544
 40
-52.17238885311544
 40
-52.17238885311544
 40
-50.65460737019742
 40
-48.91765958246155
 40
-46.90713818783865
 40
-45.04153959024246
 40
-41.86904556078238
 40
-38.76961114687984
 40
-26.08845241899109
 40
-25.92808114870358
 40
-25.92808114870358
 40
-25.92808114870358
 40
-25.92808114870358
 10
-20.18930266246775
 20
41.79692973691691
 30
0.0
 10
-19.84203396231634
 20
42.16498604100718
 30
0.0
 10
-19.06977554928777
 20
42.9273739953233
 30
0.0
 10
-17.74282673018419
 20
44.07800188100562
 30
0.0
 10
-16.29371768849521
 20
45.26003591104696
 30
0.0
 10
-14.41380385622888
 20
46.67332843943985
 30
0.0
 10
-12.12714431674821
 20
48.13307540695958
 30
0.0
 10
-6.485225078988577
 20
51.00893435810468
 30
0.0
 10
-1.170877125890954
 20
52.10083191954526
 30
0.0
 10
3.11104679563735
 20
52.0939550504132
 30
0.0
 10
3.164520943546279
 20
52.09373094498631
 30
0.0
  0
SPLINE
  5
6C
330
1F
100
AcDbEntity
  8
Make2D visible lines
100
AcDbSpline
210
0.0
220
0.0
230
1.0
 70
     8
 71
     3
 72
    15
 73
    11
 74
     0
 42
0.0000000001
 43
0.0000000001
 40
25.92808114870358
 40
25.92808114870358
 40
25.92808114870358
 40
25.92808114870358
 40
26.08845241899109
 40
38.76961114687984
 40
41.86904556078238
 40
45.04153959024246
 40
46.90713818783865
 40
48.91765958246155
 40
50.65460737019742
 40
52.17238885311544
 40
52.17238885311544
 40
52.17238885311544
 40
52.17238885311544
 10
3.164520943546279
 20
52.09373094498631
 30
0.0
 10
3.217995091455208
 20
52.0939550504132
 30
0.0
 10
7.499919012983511
 20
52.10083191954526
 30
0.0
 10
12.81426696608114
 20
51.00893435810468
 30
0.0
 10
18.45618620384077
 20
48.13307540695958
 30
0.0
 10
20.74284574332144
 20
46.67332843943985
 30
0.0
 10
22.62275957558776
 20
45.26003591104696
 30
0.0
 10
24.07186861727675
 20
44.07800188100562
 30
0.0
 10
25.39881743638033
 20
42.9273739953233
 30
0.0
 10
26.17107584940889
 20
42.16498604100718
 30
0.0
 10
26.51834454956031
 20
41.79692973691691
 30
0.0
  0
SPLINE
  5
6D
330
1F
100
AcDbEntity
  8
Make2D visible lines
100
AcDbSpline
210
0.0
220
0.0
230
1.0
 70
     8
 71
     3
 72
    19
 73
    15
 74
     0
 42
0.0000000001
 43
0.0000000001
 40
0.0
 40
0.0
 40
0.0
 40
0.0
 40
2.197958299617288
 40
4.041411711912763
 40
5.344645810490197
 40
5.902742764056216
 40
6.309121224596099
 40
6.909429295455377
 40
7.138432508441089
 40
7.423125364532576
 40
8.002789678334132
 40
8.30612903996865
 40
8.831369532824477
 40
9.110325665264789
 40
9.110325665264789
 40
9.110325665264789
 40
9.110325665264789
 10
26.51834454956031
 20
41.79692973691691
 30
0.0
 10
27.01064510787521
 20
41.25410111512011
 30
0.0
 10
27.93692619273337
 20
40.27600863374651
 30
0.0
 10
29.24588214152401
 20
39.06423976745241
 30
0.0
 10
30.23119198711417
 20
38.31813864336971
 30
0.0
 10
30.89770042402272
 20
37.95129308809911
 30
0.0
 10
31.38123863045682
 20
37.77096369772759
 30
0.0
 10
31.81768472200017
 20
37.74079707767991
 30
0.0
 10
32.12996662625704
 20
37.96708450910322
 30
0.0
 10
32.31125688281026
 20
38.29054979000634
 30
0.0
 10
32.35881094968784
 20
38.68259512635082
 30
0.0
 10
32.35605196731905
 20
39.15092067766791
 30
0.0
 10
32.34909044492946
 20
39.52046815667179
 30
0.0
 10
32.34563862099853
 20
39.7884552461797
 30
0.0
 10
32.34449520946481
 20
39.88140732546473
 30
0.0
  0
SPLINE
  5
6E
330
1F
100
AcDbEntity
  8
Make2D visible lines
100
AcDbSpline
210
0.0
220
0.0
230
1.0
 70
     8
 71
     3
 72
    15
 73
    11
 74
     0
 42
0.0000000001
 43
0.0000000001
 40
-0.1165083001863362
 40
-0.1165083001863362
 40
-0.1165083001863362
 40
-0.1165083001863362
 40
0.0000000000000001
 40
0.0000000000000001
 40
0.0000000000000001
 40
0.400966947361365
 40
0.7562857043586728
 40
1.429631665205895
 40
2.103544129292643
 40
2.816932670144126
 40
2.816932670144126
 40
2.816932670144126
 40
2.816932670144126
 10
31.17780578369575
 20
37.85142332890233
 30
0.0
 10
31.21463898772186
 20
37.82615636503783
 30
0.0
 10
31.25147219174815
 20
37.8223336655098
 30
0.0
 10
31.28830539577422
 20
37.80778883381352
 30
0.0
 10
31.41506801574447
 20
37.76593246477594
 30
0.0
 10
31.66072878430782
 20
37.70352067517229
 30
0.0
 10
32.13646486586133
 20
37.66475028544705
 30
0.0
 10
32.70487112402182
 20
37.79026910541244
 30
0.0
 10
33.25153473866757
 20
38.23692441384025
 30
0.0
 10
33.44979125641976
 20
38.66665410301682
 30
0.0
 10
33.51432121300398
 20
38.89463755658191
 30
0.0
  0
SPLINE
  5
6F
330
1F
100
AcDbEntity
  8
Make2D visible lines
100
AcDbSpline
210
0.0
220
0.0
230
1.0
 70
    12
 71
     3
 72
    11
 73
     7
 74
     0
 42
0.0000000001
 43
0.0000000001
 40
0.0
 40
0.0
 40
0.0
 40
0.0
 40
0.9434516072362373
 40
1.513581882508038
 40
2.083639190051232
 40
3.223996138200893
 40
3.223996138200893
 40
3.223996138200893
 40
3.223996138200893
 10
33.51432121300398
 20
38.89463755658191
 30
0.0
 41
1.0
 10
33.54645548854621
 20
39.00796133101021
 30
0.0
 41
1.0
 10
33.57691650672953
 20
39.17974642690665
 30
0.0
 41
1.0
 10
33.59740474087961
 20
39.40453318357086
 30
0.0
 41
1.0
 10
33.60788172854467
 20
39.64395993536819
 30
0.0
 41
1.0
 10
33.60715012631017
 20
39.81705338523457
 30
0.0
 41
1.0
 10
33.60569550904761
 20
39.92851417237865
 30
0.0
 41
1.0
  0
ARC
  5
70
330
1F
100
AcDbEntity
  8
Make2D visible lines
100
AcDbCircle
 10
1.186823546106183
 20
38.96482795219427
 30
0.0
 40
32.4331921105611
100
AcDbArc
 50
1.702677947199185
 51
4.539368837550279
  0
SPLINE
  5
71
330
1F
100
AcDbEntity
  8
Make2D visible lines
100
AcDbSpline
210
0.0
220
0.0
230
1.0
 70
     8
 71
     3
 72
    19
 73
    15
 74
     0
 42
0.0000000001
 43
0.0000000001
 40
0.4062410910773382
 40
0.4062410910773382
 40
0.4062410910773382
 40
0.4062410910773382
 40
0.590606699446772
 40
1.528420170455697
 40
4.282491888809361
 40
6.011587697510116
 40
6.207381223945343
 40
6.856879156663426
 40
11.47442991359358
 40
12.2548333877044
 40
13.42618965661133
 40
21.4154046983477
 40
30.95498129740862
 40
40.56948547357128
 40
40.56948547357128
 40
40.56948547357128
 40
40.56948547357128
 10
33.5182788276574
 20
41.53172293594737
 30
0.0
 10
33.50177607079343
 20
41.59092396454997
 30
0.0
 10
33.3907088278095
 20
41.94841260677717
 30
0.0
 10
32.88285427269793
 20
43.13832516042598
 30
0.0
 10
31.99388425659714
 20
44.71502637542829
 30
0.0
 10
31.15080937399765
 20
46.02655605488076
 30
0.0
 10
30.66156993434589
 20
46.73203849130169
 30
0.0
 10
29.62608689855018
 20
48.22977178159809
 30
0.0
 10
28.47980033027308
 20
49.88808452442307
 30
0.0
 10
27.23633332310858
 20
51.69044819463446
 30
0.0
 10
25.32512102168462
 20
54.39858417956301
 30
0.0
 10
20.87702893269991
 20
58.85705005029053
 30
0.0
 10
12.75793531927094
 20
63.1126076519387
 30
0.0
 10
6.3696459520079
 20
64.13386005060941
 30
0.0
 10
3.164520943546279
 20
64.13053569904953
 30
0.0
  0
SPLINE
  5
72
330
1F
100
AcDbEntity
  8
Make2D visible lines
100
AcDbSpline
210
0.0
220
0.0
230
1.0
 70
     8
 71
     3
 72
    19
 73
    15
 74
     0
 42
0.0000000001
 43
0.0000000001
 40
-40.56948547357128
 40
-40.56948547357128
 40
-40.56948547357128
 40
-40.56948547357128
 40
-30.95498129740862
 40
-21.4154046983477
 40
-13.42618965661133
 40
-12.2548333877044
 40
-11.47442991359358
 40
-6.856879156663426
 40
-6.207381223945343
 40
-6.011587697510116
 40
-4.282491888809361
 40
-1.528420170455697
 40
-0.590606699446772
 40
-0.4062410910773382
 40
-0.4062410910773382
 40
-0.4062410910773382
 40
-0.4062410910773382
 10
3.164520943546279
 20
64.13053569904953
 30
0.0
 10
-0.0406040649153425
 20
64.13386005060941
 30
0.0
 10
-6.428893432178384
 20
63.1126076519387
 30
0.0
 10
-14.54798704560736
 20
58.85705005029053
 30
0.0
 10
-18.99607913459207
 20
54.39858417956301
 30
0.0
 10
-20.90729143601602
 20
51.69044819463446
 30
0.0
 10
-22.15075844318052
 20
49.88808452442307
 30
0.0
 10
-23.29704501145763
 20
48.22977178159809
 30
0.0
 10
-24.33252804725333
 20
46.73203849130169
 30
0.0
 10
-24.82176748690508
 20
46.02655605488076
 30
0.0
 10
-25.66484236950458
 20
44.71502637542829
 30
0.0
 10
-26.55381238560536
 20
43.13832516042598
 30
0.0
 10
-27.06166694071694
 20
41.94841260677717
 30
0.0
 10
-27.17273418370086
 20
41.59092396454997
 30
0.0
 10
-27.18923694056484
 20
41.53172293594737
 30
0.0
  0
ARC
  5
73
330
1F
100
AcDbEntity
  8
Make2D visible lines
100
AcDbCircle
 10
5.142218340986375
 20
38.96482795219427
 30
0.0
 40
32.4331921105611
100
AcDbArc
 50
175.4606311624497
 51
178.2973220528008
  0
SPLINE
  5
74
330
1F
100
AcDbEntity
  8
Make2D visible lines
100
AcDbSpline
210
0.0
220
0.0
230
1.0
 70
    12
 71
     3
 72
    11
 73
     7
 74
     0
 42
0.0000000001
 43
0.0000000001
 40
-3.223996138200893
 40
-3.223996138200893
 40
-3.223996138200893
 40
-3.223996138200893
 40
-2.083639190051232
 40
-1.513581882508038
 40
-0.9434516072362373
 40
0.0
 40
0.0
 40
0.0
 40
0.0
 10
-27.27665362195505
 20
39.92851417237865
 30
0.0
 41
1.0
 10
-27.27810823921762
 20
39.81705338523457
 30
0.0
 41
1.0
 10
-27.27883984145211
 20
39.64395993536819
 30
0.0
 41
1.0
 10
-27.26836285378705
 20
39.40453318357086
 30
0.0
 41
1.0
 10
-27.24787461963697
 20
39.17974642690665
 30
0.0
 41
1.0
 10
-27.21741360145366
 20
39.00796133101021
 30
0.0
 41
1.0
 10
-27.18527932591142
 20
38.89463755658191
 30
0.0
 41
1.0
  0
SPLINE
  5
75
330
1F
100
AcDbEntity
  8
Make2D visible lines
100
AcDbSpline
210
0.0
220
0.0
230
1.0
 70
     8
 71
     3
 72
    15
 73
    11
 74
     0
 42
0.0000000001
 43
0.0000000001
 40
-2.816932670144126
 40
-2.816932670144126
 40
-2.816932670144126
 40
-2.816932670144126
 40
-2.103544129292643
 40
-1.429631665205895
 40
-0.7562857043586728
 40
-0.400966947361365
 40
-0.0000000000000001
 40
-0.0000000000000001
 40
-0.0000000000000001
 40
0.1165083001863362
 40
0.1165083001863362
 40
0.1165083001863362
 40
0.1165083001863362
 10
-27.18527932591142
 20
38.89463755658191
 30
0.0
 10
-27.12074936932721
 20
38.66665410301682
 30
0.0
 10
-26.92249285157501
 20
38.23692441384025
 30
0.0
 10
-26.37582923692926
 20
37.79026910541244
 30
0.0
 10
-25.80742297876877
 20
37.66475028544705
 30
0.0
 10
-25.33168689721526
 20
37.70352067517229
 30
0.0
 10
-25.08602612865191
 20
37.76593246477594
 30
0.0
 10
-24.95926350868166
 20
37.80778883381352
 30
0.0
 10
-24.9224303046556
 20
37.8223336655098
 30
0.0
 10
-24.88559710062929
 20
37.82615636503783
 30
0.0
 10
-24.84876389660319
 20
37.85142332890233
 30
0.0
  0
SPLINE
  5
76
330
1F
100
AcDbEntity
  8
Make2D visible lines
100
AcDbSpline
210
0.0
220
0.0
230
1.0
 70
    12
 71
     2
 72
     8
 73
     5
 74
     0
 42
0.0000000001
 43
0.0000000001
 40
-6.283185307179586
 40
-6.283185307179586
 40
-6.283185307179586
 40
-4.71238898038469
 40
-4.71238898038469
 40
-4.710160881405424
 40
-4.710160881405424
 40
-4.710160881405424
 10
-21.92177843478278
 20
25.90046270384906
 30
0.0
 41
1.0
 10
-21.90235839212858
 20
51.78082709909879
 30
0.0
 41
0.7071067811865476
 10
3.114316878518977
 20
51.7607365884684
 30
0.0
 41
1.0
 10
3.139418955859196
 20
51.76071642937267
 30
0.0
 41
0.9995845450675305
 10
3.164520943546273
 20
51.76064415563585
 30
0.0
 41
0.9991702687407085
  0
SPLINE
  5
77
330
1F
100
AcDbEntity
  8
Make2D visible lines
100
AcDbSpline
210
0.0
220
0.0
230
1.0
 70
    12
 71
     2
 72
     8
 73
     5
 74
     0
 42
0.0000000001
 43
0.0000000001
 40
4.710160881405424
 40
4.710160881405424
 40
4.710160881405424
 40
4.71238898038469
 40
4.71238898038469
 40
6.283185307179586
 40
6.283185307179586
 40
6.283185307179586
 10
3.164520943546273
 20
51.76064415563585
 30
0.0
 41
0.9991702687407085
 10
3.189622931233365
 20
51.76071642937267
 30
0.0
 41
0.9995845450675305
 10
3.214725008573581
 20
51.7607365884684
 30
0.0
 41
1.0
 10
28.23140027922113
 20
51.78082709909879
 30
0.0
 41
0.7071067811865476
 10
28.25082032187534
 20
25.90046270384906
 30
0.0
 41
1.0
  0
SPLINE
  5
78
330
1F
100
AcDbEntity
  8
Make2D visible lines
100
AcDbSpline
210
0.0
220
0.0
230
1.0
 70
    12
 71
     2
 72
     8
 73
     5
 74
     0
 42
0.0000000001
 43
0.0000000001
 40
0.0
 40
0.0
 40
0.0
 40
1.570796326794896
 40
1.570796326794896
 40
1.574746911922178
 40
1.574746911922178
 40
1.574746911922178
 10
28.25082032187534
 20
25.90046270384906
 30
0.0
 41
1.0
 10
28.27024036452954
 20
0.0200983085993373
 30
0.0
 41
0.7071067811865476
 10
3.253565093881988
 20
0.0000077979689426
 30
0.0
 41
1.0
 10
3.209042939207732
 20
-0.0000279570949136
 30
0.0
 41
0.999263367519781
 10
3.164520943546296
 20
0.0001002308014988
 30
0.0
 41
0.9985304403312932
  0
SPLINE
  5
79
330
1F
100
AcDbEntity
  8
Make2D visible lines
100
AcDbSpline
210
0.0
220
0.0
230
1.0
 70
    12
 71
     2
 72
     8
 73
     5
 74
     0
 42
0.0000000001
 43
0.0000000001
 40
-1.574746911922178
 40
-1.574746911922178
 40
-1.574746911922178
 40
-1.570796326794896
 40
-1.570796326794896
 40
0.0
 40
0.0
 40
0.0
 10
3.164520943546268
 20
0.0001002308014988
 30
0.0
 41
0.9985304403312932
 10
3.119998947884819
 20
-0.0000279570949136
 30
0.0
 41
0.999263367519781
 10
3.075476793210569
 20
0.0000077979689426
 30
0.0
 41
1.0
 10
-21.94119847743698
 20
0.0200983085993373
 30
0.0
 41
0.7071067811865476
 10
-21.92177843478278
 20
25.90046270384906
 30
0.0
 41
1.0
  0
ARC
  5
7A
330
1F
100
AcDbEntity
  8
Make2D visible lines
100
AcDbCircle
 10
-20.6156498058766
 20
39.74415920560788
 30
0.0
 40
5.401547469314515
100
AcDbArc
 50
167.9716748870049
 51
180.0
  0
SPLINE
  5
7B
330
1F
100
AcDbEntity
  8
Make2D visible lines
100
AcDbSpline
210
0.0
220
0.0
230
1.0
 70
     8
 71
     3
 72
    19
 73
    15
 74
     0
 42
0.0000000001
 43
0.0000000001
 40
-77.68752199260912
 40
-77.68752199260912
 40
-77.68752199260912
 40
-77.68752199260912
 40
-77.60349834388101
 40
-76.6865093968816
 40
-74.03107476219404
 40
-73.12947707467833
 40
-72.29732408063575
 40
-70.286968990937
 40
-66.9590292377598
 40
-65.95430211284194
 40
-65.07491654465382
 40
-57.61738887170216
 40
-48.41006071191635
 40
-39.12724993577571
 40
-39.12724993577571
 40
-39.12724993577571
 40
-39.12724993577571
 10
-25.89860466187761
 20
40.86981592624408
 30
0.0
 10
-25.89007822624153
 20
40.89649785577658
 30
0.0
 10
-25.78550412942151
 20
41.2134254419628
 30
0.0
 10
-25.30492056906868
 20
42.33556148352723
 30
0.0
 10
-24.57084896006417
 20
43.63578450824662
 30
0.0
 10
-23.80024301728575
 20
44.8795506432178
 30
0.0
 10
-23.09882550834216
 20
45.91188217752477
 30
0.0
 10
-21.93013819881365
 20
47.60438290308687
 30
0.0
 10
-20.72344496201185
 20
49.34064577743505
 30
0.0
 10
-19.74115957916356
 20
50.77355563767013
 30
0.0
 10
-17.94984831592132
 20
53.32129555518443
 30
0.0
 10
-13.82838758638638
 20
57.55124205537513
 30
0.0
 10
-6.093650258774844
 20
61.68732610478142
 30
0.0
 10
0.0700272057283229
 20
62.69275742586492
 30
0.0
 10
3.164520943546279
 20
62.68982443479023
 30
0.0
  0
SPLINE
  5
7C
330
1F
100
AcDbEntity
  8
Make2D visible lines
100
AcDbSpline
210
0.0
220
0.0
230
1.0
 70
     8
 71
     3
 72
    19
 73
    15
 74
     0
 42
0.0000000001
 43
0.0000000001
 40
39.12724993577571
 40
39.12724993577571
 40
39.12724993577571
 40
39.12724993577571
 40
48.41006071191635
 40
57.61738887170216
 40
65.07491654465382
 40
65.95430211284194
 40
66.9590292377598
 40
70.286968990937
 40
72.29732408063575
 40
73.12947707467833
 40
74.03107476219404
 40
76.6865093968816
 40
77.60349834388101
 40
77.68752199260912
 40
77.68752199260912
 40
77.68752199260912
 40
77.68752199260912
 10
3.164520943546279
 20
62.68982443479023
 30
0.0
 10
6.259014681364235
 20
62.69275742586492
 30
0.0
 10
12.4226921458674
 20
61.68732610478142
 30
0.0
 10
20.15742947347894
 20
57.55124205537513
 30
0.0
 10
24.27889020301387
 20
53.32129555518443
 30
0.0
 10
26.07020146625612
 20
50.77355563767013
 30
0.0
 10
27.05248684910441
 20
49.34064577743505
 30
0.0
 10
28.25918008590621
 20
47.60438290308687
 30
0.0
 10
29.42786739543472
 20
45.91188217752477
 30
0.0
 10
30.12928490437831
 20
44.8795506432178
 30
0.0
 10
30.89989084715673
 20
43.63578450824662
 30
0.0
 10
31.63396245616124
 20
42.33556148352723
 30
0.0
 10
32.11454601651407
 20
41.2134254419628
 30
0.0
 10
32.2191201133341
 20
40.89649785577658
 30
0.0
 10
32.22764654897017
 20
40.86981592624408
 30
0.0
  0
ARC
  5
7D
330
1F
100
AcDbEntity
  8
Make2D visible lines
100
AcDbCircle
 10
26.94469169296916
 20
39.74415920560788
 30
0.0
 40
5.401547469314515
100
AcDbArc
 50
0.0
 51
12.02832511299509
  0
ENDSEC
  0
SECTION
  2
OBJECTS
  0
DICTIONARY
  5
C
330
0
100
AcDbDictionary
281
     1
  3
ACAD_GROUP
350
D
  3
ACAD_LAYOUT
350
1A
  3
ACAD_MLEADERSTYLE
350
7F
  3
ACAD_MLINESTYLE
350
17
  3
ACAD_PLOTSETTINGS
350
19
  3
ACAD_PLOTSTYLENAME
350
E
  3
ACAD_TABLESTYLE
350
7E
  3
ACAD_VISUALSTYLE
350
2A
  0
DICTIONARY
  5
D
102
{ACAD_REACTORS
330
C
102
}
330
C
100
AcDbDictionary
281
     1
  0
DICTIONARY
  5
1A
102
{ACAD_REACTORS
330
C
102
}
330
C
100
AcDbDictionary
281
     1
  3
Layout1
350
1E
  3
Layout2
350
26
  3
Model
350
22
  0
DICTIONARY
  5
7F
102
{ACAD_REACTORS
330
C
102
}
330
C
100
AcDbDictionary
281
     1
  0
DICTIONARY
  5
17
102
{ACAD_REACTORS
330
C
102
}
330
C
100
AcDbDictionary
281
     1
  3
Standard
350
18
  0
DICTIONARY
  5
19
102
{ACAD_REACTORS
330
C
102
}
330
C
100
AcDbDictionary
281
     1
  0
ACDBDICTIONARYWDFLT
  5
E
102
{ACAD_REACTORS
330
C
102
}
330
C
100
AcDbDictionary
281
     1
  3
Normal
350
F
100
AcDbDictionaryWithDefault
340
F
  0
DICTIONARY
  5
7E
102
{ACAD_REACTORS
330
C
102
}
330
C
100
AcDbDictionary
281
     1
  0
DICTIONARY
  5
2A
102
{ACAD_REACTORS
330
C
102
}
330
C
100
AcDbDictionary
281
     1
  3
2dWireframe
350
2F
  3
3D Hidden
350
31
  3
3dWireframe
350
30
  3
Basic
350
32
  3
Brighten
350
36
  3
ColorChange
350
3A
  3
Conceptual
350
34
  3
Dim
350
35
  3
Facepattern
350
39
  3
Flat
350
2B
  3
FlatWithEdges
350
2C
  3
Gouraud
350
2D
  3
GouraudWithEdges
350
2E
  3
Linepattern
350
38
  3
Realistic
350
33
  3
Thicken
350
37
  0
LAYOUT
  5
1E
102
{ACAD_REACTORS
330
1A
102
}
330
1A
100
AcDbPlotSettings
  1

  2
none_device
  4

  6

 40
0.0
 41
0.0
 42
0.0
 43
0.0
 44
0.0
 45
0.0
 46
0.0
 47
0.0
 48
0.0
 49
0.0
140
0.0
141
0.0
142
1.0
143
1.0
 70
   688
 72
     0
 73
     0
 74
     5
  7

 75
    16
 76
     0
 77
     2
 78
   300
147
1.0
148
0.0
149
0.0
100
AcDbLayout
  1
Layout1
 70
     1
 71
     1
 10
0.0
 20
0.0
 11
12.0
 21
9.0
 12
0.0
 22
0.0
 32
0.0
 14
1.000000000000000E+20
 24
1.000000000000000E+20
 34
1.000000000000000E+20
 15
-1.000000000000000E+20
 25
-1.000000000000000E+20
 35
-1.000000000000000E+20
146
0.0
 13
0.0
 23
0.0
 33
0.0
 16
1.0
 26
0.0
 36
0.0
 17
0.0
 27
1.0
 37
0.0
 76
     0
330
1B
  0
LAYOUT
  5
26
102
{ACAD_REACTORS
330
1A
102
}
330
1A
100
AcDbPlotSettings
  1

  2
none_device
  4

  6

 40
0.0
 41
0.0
 42
0.0
 43
0.0
 44
0.0
 45
0.0
 46
0.0
 47
0.0
 48
0.0
 49
0.0
140
0.0
141
0.0
142
1.0
143
1.0
 70
   688
 72
     0
 73
     0
 74
     5
  7

 75
    16
 76
     0
 77
     2
 78
   300
147
1.0
148
0.0
149
0.0
100
AcDbLayout
  1
Layout2
 70
     1
 71
     2
 10
0.0
 20
0.0
 11
0.0
 21
0.0
 12
0.0
 22
0.0
 32
0.0
 14
0.0
 24
0.0
 34
0.0
 15
0.0
 25
0.0
 35
0.0
146
0.0
 13
0.0
 23
0.0
 33
0.0
 16
1.0
 26
0.0
 36
0.0
 17
0.0
 27
1.0
 37
0.0
 76
     0
330
23
  0
LAYOUT
  5
22
102
{ACAD_REACTORS
330
1A
102
}
330
1A
100
AcDbPlotSettings
  1

  2
none_device
  4

  6

 40
0.0
 41
0.0
 42
0.0
 43
0.0
 44
0.0
 45
0.0
 46
0.0
 47
0.0
 48
0.0
 49
0.0
140
0.0
141
0.0
142
1.0
143
1.0
 70
  1712
 72
     0
 73
     0
 74
     0
  7

 75
     0
 76
     0
 77
     2
 78
   300
147
1.0
148
0.0
149
0.0
100
AcDbLayout
  1
Model
 70
     1
 71
     0
 10
0.0
 20
0.0
 11
12.0
 21
9.0
 12
0.0
 22
0.0
 32
0.0
 14
-27.27665362195505
 24
0.0000077979689426
 34
0.0
 15
33.60569550904799
 25
64.13053569904962
 35
0.0
146
0.0
 13
0.0
 23
0.0
 33
0.0
 16
1.0
 26
0.0
 36
0.0
 17
0.0
 27
1.0
 37
0.0
 76
     0
330
1F
331
29
  0
MLINESTYLE
  5
18
102
{ACAD_REACTORS
330
17
102
}
330
17
100
AcDbMlineStyle
  2
Standard
 70
     0
  3

 62
   256
 51
90.0
 52
90.0
 71
     2
 49
0.5
 62
   256
  6
BYLAYER
 49
-0.5
 62
   256
  6
BYLAYER
  0
ACDBPLACEHOLDER
  5
F
102
{ACAD_REACTORS
330
E
102
}
330
E
  0
VISUALSTYLE
  5
2F
102
{ACAD_REACTORS
330
2A
102
}
330
2A
100
AcDbVisualStyle
  2
2dWireframe
 70
     4
 71
     0
 72
     2
 73
     0
 90
        0
 40
-0.6
 41
-30.0
 62
     5
 63
     7
421
 16777215
 74
     1
 91
        4
 64
     7
 65
   257
 75
     1
175
     1
 42
1.0
 92
        0
 66
   257
 43
1.0
 76
     1
 77
     6
 78
     2
 67
     7
 79
     5
170
     0
171
     0
290
     0
174
     0
 93
        1
 44
0.0
173
     0
291
     0
 45
0.0
1001
ACAD
1000
AcDbSavedByObjectVersion
1070
     0
  0
VISUALSTYLE
  5
31
102
{ACAD_REACTORS
330
2A
102
}
330
2A
100
AcDbVisualStyle
  2
3D Hidden
 70
     6
 71
     1
 72
     2
 73
     2
 90
        0
 40
-0.6
 41
-30.0
 62
     5
 63
     7
421
 16777215
 74
     2
 91
        2
 64
     7
 65
   257
 75
     2
175
     1
 42
40.0
 92
        0
 66
   257
 43
1.0
 76
     1
 77
     6
 78
     2
 67
     7
 79
     3
170
     0
171
     0
290
     0
174
     0
 93
        1
 44
0.0
173
     0
291
     0
 45
0.0
1001
ACAD
1000
AcDbSavedByObjectVersion
1070
     0
  0
VISUALSTYLE
  5
30
102
{ACAD_REACTORS
330
2A
102
}
330
2A
100
AcDbVisualStyle
  2
3dWireframe
 70
     5
 71
     0
 72
     2
 73
     0
 90
        0
 40
-0.6
 41
-30.0
 62
     5
 63
     7
421
 16777215
 74
     1
 91
        4
 64
     7
 65
   257
 75
     1
175
     1
 42
1.0
 92
        0
 66
   257
 43
1.0
 76
     1
 77
     6
 78
     2
 67
     7
 79
     5
170
     0
171
     0
290
     0
174
     0
 93
        1
 44
0.0
173
     0
291
     0
 45
0.0
1001
ACAD
1000
AcDbSavedByObjectVersion
1070
     0
  0
VISUALSTYLE
  5
32
102
{ACAD_REACTORS
330
2A
102
}
330
2A
100
AcDbVisualStyle
  2
Basic
 70
     7
 71
     1
 72
     0
 73
     1
 90
        0
 40
-0.6
 41
-30.0
 62
     5
 63
     7
421
 16777215
 74
     0
 91
        4
 64
     7
 65
   257
 75
     1
175
     1
 42
1.0
 92
        8
 66
     7
 43
1.0
 76
     1
 77
     6
 78
     2
 67
     7
 79
     5
170
     0
171
     0
290
     0
174
     0
 93
        1
 44
0.0
173
     0
291
     1
 45
0.0
1001
ACAD
1000
AcDbSavedByObjectVersion
1070
     0
  0
VISUALSTYLE
  5
36
102
{ACAD_REACTORS
330
2A
102
}
330
2A
100
AcDbVisualStyle
  2
Brighten
 70
    12
 71
     2
 72
     2
 73
     0
 90
        0
 40
-0.6
 41
-30.0
 62
     5
 63
     7
421
 16777215
 74
     1
 91
        4
 64
     7
 65
   257
 75
     1
175
     1
 42
1.0
 92
        8
 66
     7
 43
1.0
 76
     1
 77
     6
 78
     2
 67
     7
 79
     5
170
     0
171
     0
290
     0
174
     0
 93
        1
 44
50.0
173
     0
291
     1
 45
0.0
1001
ACAD
1000
AcDbSavedByObjectVersion
1070
     0
  0
VISUALSTYLE
  5
3A
102
{ACAD_REACTORS
330
2A
102
}
330
2A
100
AcDbVisualStyle
  2
ColorChange
 70
    16
 71
     2
 72
     2
 73
     3
 90
        0
 40
-0.6
 41
-30.0
 62
     5
 63
     8
421
  8421504
 74
     1
 91
        4
 64
     7
 65
   257
 75
     1
175
     1
 42
1.0
 92
        8
 66
     8
424
  8421504
 43
1.0
 76
     1
 77
     6
 78
     2
 67
     7
 79
     5
170
     0
171
     0
290
     0
174
     0
 93
        1
 44
0.0
173
     0
291
     1
 45
0.0
1001
ACAD
1000
AcDbSavedByObjectVersion
1070
     0
  0
VISUALSTYLE
  5
34
102
{ACAD_REACTORS
330
2A
102
}
330
2A
100
AcDbVisualStyle
  2
Conceptual
 70
     9
 71
     3
 72
     2
 73
     0
 90
        0
 40
-0.6
 41
-30.0
 62
     5
 63
     7
421
 16777215
 74
     2
 91
        2
 64
     7
 65
   257
 75
     1
175
     1
 42
40.0
 92
        8
 66
     7
 43
1.0
 76
     1
 77
     6
 78
     2
 67
     7
 79
     3
170
     0
171
     0
290
     0
174
     0
 93
        1
 44
0.0
173
     0
291
     0
 45
0.0
1001
ACAD
1000
AcDbSavedByObjectVersion
1070
     0
  0
VISUALSTYLE
  5
35
102
{ACAD_REACTORS
330
2A
102
}
330
2A
100
AcDbVisualStyle
  2
Dim
 70
    11
 71
     2
 72
     2
 73
     0
 90
        0
 40
-0.6
 41
-30.0
 62
     5
 63
     7
421
 16777215
 74
     1
 91
        4
 64
     7
 65
   257
 75
     1
175
     1
 42
1.0
 92
        8
 66
     7
 43
1.0
 76
     1
 77
     6
 78
     2
 67
     7
 79
     5
170
     0
171
     0
290
     0
174
     0
 93
        1
 44
-50.0
173
     0
291
     1
 45
0.0
1001
ACAD
1000
AcDbSavedByObjectVersion
1070
     0
  0
VISUALSTYLE
  5
39
102
{ACAD_REACTORS
330
2A
102
}
330
2A
100
AcDbVisualStyle
  2
Facepattern
 70
    15
 71
     2
 72
     2
 73
     0
 90
        0
 40
-0.6
 41
-30.0
 62
     5
 63
     7
421
 16777215
 74
     1
 91
        4
 64
     7
 65
   257
 75
     1
175
     1
 42
1.0
 92
        8
 66
     7
 43
1.0
 76
     1
 77
     6
 78
     2
 67
     7
 79
     5
170
     0
171
     0
290
     0
174
     0
 93
        1
 44
0.0
173
     0
291
     1
 45
0.0
1001
ACAD
1000
AcDbSavedByObjectVersion
1070
     0
  0
VISUALSTYLE
  5
2B
102
{ACAD_REACTORS
330
2A
102
}
330
2A
100
AcDbVisualStyle
  2
Flat
 70
     0
 71
     2
 72
     1
 73
     1
 90
        2
 40
-0.6
 41
30.0
 62
     5
 63
     7
421
 16777215
 74
     0
 91
        4
 64
     7
 65
   257
 75
     1
175
     1
 42
1.0
 92
        8
 66
     7
 43
1.0
 76
     1
 77
     6
 78
     2
 67
     7
 79
     5
170
     0
171
     0
290
     0
174
     0
 93
       13
 44
0.0
173
     0
291
     1
 45
0.0
1001
ACAD
1000
AcDbSavedByObjectVersion
1070
     0
  0
VISUALSTYLE
  5
2C
102
{ACAD_REACTORS
330
2A
102
}
330
2A
100
AcDbVisualStyle
  2
FlatWithEdges
 70
     1
 71
     2
 72
     1
 73
     1
 90
        2
 40
-0.6
 41
30.0
 62
     5
 63
     7
421
 16777215
 74
     1
 91
        4
 64
     7
 65
   257
 75
     1
175
     1
 42
1.0
 92
        0
 66
   257
 43
1.0
 76
     1
 77
     6
 78
     2
 67
     7
 79
     5
170
     0
171
     0
290
     0
174
     0
 93
       13
 44
0.0
173
     0
291
     1
 45
0.0
1001
ACAD
1000
AcDbSavedByObjectVersion
1070
     0
  0
VISUALSTYLE
  5
2D
102
{ACAD_REACTORS
330
2A
102
}
330
2A
100
AcDbVisualStyle
  2
Gouraud
 70
     2
 71
     2
 72
     2
 73
     1
 90
        2
 40
-0.6
 41
30.0
 62
     5
 63
     7
421
 16777215
 74
     0
 91
        4
 64
     7
 65
   257
 75
     1
175
     1
 42
1.0
 92
        0
 66
     7
 43
1.0
 76
     1
 77
     6
 78
     2
 67
     7
 79
     5
170
     0
171
     0
290
     0
174
     0
 93
       13
 44
0.0
173
     0
291
     1
 45
0.0
1001
ACAD
1000
AcDbSavedByObjectVersion
1070
     0
  0
VISUALSTYLE
  5
2E
102
{ACAD_REACTORS
330
2A
102
}
330
2A
100
AcDbVisualStyle
  2
GouraudWithEdges
 70
     3
 71
     2
 72
     2
 73
     1
 90
        2
 40
-0.6
 41
30.0
 62
     5
 63
     7
421
 16777215
 74
     1
 91
        4
 64
     7
 65
   257
 75
     1
175
     1
 42
1.0
 92
        0
 66
   257
 43
1.0
 76
     1
 77
     6
 78
     2
 67
     7
 79
     5
170
     0
171
     0
290
     0
174
     0
 93
       13
 44
0.0
173
     0
291
     1
 45
0.0
1001
ACAD
1000
AcDbSavedByObjectVersion
1070
     0
  0
VISUALSTYLE
  5
38
102
{ACAD_REACTORS
330
2A
102
}
330
2A
100
AcDbVisualStyle
  2
Linepattern
 70
    14
 71
     2
 72
     2
 73
     0
 90
        0
 40
-0.6
 41
-30.0
 62
     5
 63
     7
421
 16777215
 74
     1
 91
        4
 64
     7
 65
   257
 75
     7
175
     7
 42
1.0
 92
        8
 66
     7
 43
1.0
 76
     1
 77
     6
 78
     2
 67
     7
 79
     5
170
     0
171
     0
290
     0
174
     0
 93
        1
 44
0.0
173
     0
291
     1
 45
0.0
1001
ACAD
1000
AcDbSavedByObjectVersion
1070
     0
  0
VISUALSTYLE
  5
33
102
{ACAD_REACTORS
330
2A
102
}
330
2A
100
AcDbVisualStyle
  2
Realistic
 70
     8
 71
     2
 72
     2
 73
     0
 90
        0
 40
-0.6
 41
-30.0
 62
     5
 63
     7
421
 16777215
 74
     1
 91
        0
 64
     7
 65
   257
 75
     1
175
     1
 42
1.0
 92
        8
 66
     8
424
  7895160
 43
1.0
 76
     1
 77
     6
 78
     2
 67
     7
 79
     5
170
     0
171
     0
290
     0
174
     0
 93
       13
 44
0.0
173
     0
291
     0
 45
0.0
1001
ACAD
1000
AcDbSavedByObjectVersion
1070
     0
  0
VISUALSTYLE
  5
37
102
{ACAD_REACTORS
330
2A
102
}
330
2A
100
AcDbVisualStyle
  2
Thicken
 70
    13
 71
     2
 72
     2
 73
     0
 90
        0
 40
-0.6
 41
-30.0
 62
     5
 63
     7
421
 16777215
 74
     1
 91
        4
 64
     7
 65
   257
 75
     1
175
     1
 42
1.0
 92
       12
 66
     7
 43
1.0
 76
     1
 77
     6
 78
     2
 67
     7
 79
     5
170
     0
171
     0
290
     0
174
     0
 93
        1
 44
0.0
173
     0
291
     1
 45
0.0
1001
ACAD
1000
AcDbSavedByObjectVersion
1070
     0
  0
ENDSEC
  0
EOF
