  0
SECTION
  2
HEADER
  9
$ACADVER
  1
AC1018
  9
$ACADMAINTVER
 70
     0
  9
$DWGCODEPAGE
  3
ANSI_1252
  9
$INSBASE
 10
0.0
 20
0.0
 30
0.0
  9
$EXTMIN
 10
0.0
 20
-61.93392181396484
 30
0.0
  9
$EXTMAX
 10
60.0
 20
0.0
 30
170.0
  9
$LIMMIN
 10
0.0
 20
0.0
  9
$LIMMAX
 10
12.0
 20
9.0
  9
$ORTHOMODE
 70
     0
  9
$REGENMODE
 70
     1
  9
$FILLMODE
 70
     1
  9
$QTEXTMODE
 70
     0
  9
$MIRRTEXT
 70
     1
  9
$LTSCALE
 40
1.0
  9
$ATTMODE
 70
     1
  9
$TEXTSIZE
 40
0.2
  9
$TRACEWID
 40
0.05
  9
$TEXTSTYLE
  7
Standard
  9
$CLAYER
  8
0
  9
$CELTYPE
  6
ByLayer
  9
$CECOLOR
 62
   256
  9
$CELTSCALE
 40
1.0
  9
$DISPSILH
 70
     0
  9
$DIMSCALE
 40
1.0
  9
$DIMASZ
 40
0.18
  9
$DIMEXO
 40
0.0625
  9
$DIMDLI
 40
0.38
  9
$DIMRND
 40
0.0
  9
$DIMDLE
 40
0.0
  9
$DIMEXE
 40
0.18
  9
$DIMTP
 40
0.0
  9
$DIMTM
 40
0.0
  9
$DIMTXT
 40
0.18
  9
$DIMCEN
 40
0.09
  9
$DIMTSZ
 40
0.0
  9
$DIMTOL
 70
     0
  9
$DIMLIM
 70
     0
  9
$DIMTIH
 70
     1
  9
$DIMTOH
 70
     1
  9
$DIMSE1
 70
     0
  9
$DIMSE2
 70
     0
  9
$DIMTAD
 70
     0
  9
$DIMZIN
 70
     0
  9
$DIMBLK
  1

  9
$DIMASO
 70
     1
  9
$DIMSHO
 70
     1
  9
$DIMPOST
  1

  9
$DIMAPOST
  1

  9
$DIMALT
 70
     0
  9
$DIMALTD
 70
     2
  9
$DIMALTF
 40
25.4
  9
$DIMLFAC
 40
1.0
  9
$DIMTOFL
 70
     0
  9
$DIMTVP
 40
0.0
  9
$DIMTIX
 70
     0
  9
$DIMSOXD
 70
     0
  9
$DIMSAH
 70
     0
  9
$DIMBLK1
  1

  9
$DIMBLK2
  1

  9
$DIMSTYLE
  2
Standard
  9
$DIMCLRD
 70
     0
  9
$DIMCLRE
 70
     0
  9
$DIMCLRT
 70
     0
  9
$DIMTFAC
 40
1.0
  9
$DIMGAP
 40
0.09
  9
$DIMJUST
 70
     0
  9
$DIMSD1
 70
     0
  9
$DIMSD2
 70
     0
  9
$DIMTOLJ
 70
     1
  9
$DIMTZIN
 70
     0
  9
$DIMALTZ
 70
     0
  9
$DIMALTTZ
 70
     0
  9
$DIMUPT
 70
     0
  9
$DIMDEC
 70
     4
  9
$DIMTDEC
 70
     4
  9
$DIMALTU
 70
     2
  9
$DIMALTTD
 70
     2
  9
$DIMTXSTY
  7
Standard
  9
$DIMAUNIT
 70
     0
  9
$DIMADEC
 70
     0
  9
$DIMALTRND
 40
0.0
  9
$DIMAZIN
 70
     0
  9
$DIMDSEP
 70
    46
  9
$DIMATFIT
 70
     3
  9
$DIMFRAC
 70
     0
  9
$DIMLDRBLK
  1

  9
$DIMLUNIT
 70
     2
  9
$DIMLWD
 70
    -2
  9
$DIMLWE
 70
    -2
  9
$DIMTMOVE
 70
     2
  9
$LUNITS
 70
     2
  9
$LUPREC
 70
     4
  9
$SKETCHINC
 40
0.1
  9
$FILLETRAD
 40
0.5
  9
$AUNITS
 70
     0
  9
$AUPREC
 70
     0
  9
$MENU
  1
.
  9
$ELEVATION
 40
0.0
  9
$PELEVATION
 40
0.0
  9
$THICKNESS
 40
0.0
  9
$LIMCHECK
 70
     0
  9
$CHAMFERA
 40
0.5
  9
$CHAMFERB
 40
0.5
  9
$CHAMFERC
 40
1.0
  9
$CHAMFERD
 40
0.0
  9
$SKPOLY
 70
     0
  9
$TDCREATE
 40
2459177.602710544
  9
$TDUCREATE
 40
2459177.727710544
  9
$TDUPDATE
 40
2459177.602710556
  9
$TDUUPDATE
 40
2459177.727710556
  9
$TDINDWG
 40
0.0000000116
  9
$TDUSRTIMER
 40
0.0000000116
  9
$USRTIMER
 70
     1
  9
$ANGBASE
 50
0.0
  9
$ANGDIR
 70
     0
  9
$PDMODE
 70
     0
  9
$PDSIZE
 40
0.0
  9
$PLINEWID
 40
0.0
  9
$SPLFRAME
 70
     0
  9
$SPLINETYPE
 70
     6
  9
$SPLINESEGS
 70
     8
  9
$HANDSEED
  5
2DA
  9
$SURFTAB1
 70
     6
  9
$SURFTAB2
 70
     6
  9
$SURFTYPE
 70
     6
  9
$SURFU
 70
     6
  9
$SURFV
 70
     6
  9
$UCSBASE
  2

  9
$UCSNAME
  2

  9
$UCSORG
 10
0.0
 20
0.0
 30
0.0
  9
$UCSXDIR
 10
1.0
 20
0.0
 30
0.0
  9
$UCSYDIR
 10
0.0
 20
1.0
 30
0.0
  9
$UCSORTHOREF
  2

  9
$UCSORTHOVIEW
 70
     0
  9
$UCSORGTOP
 10
0.0
 20
0.0
 30
0.0
  9
$UCSORGBOTTOM
 10
0.0
 20
0.0
 30
0.0
  9
$UCSORGLEFT
 10
0.0
 20
0.0
 30
0.0
  9
$UCSORGRIGHT
 10
0.0
 20
0.0
 30
0.0
  9
$UCSORGFRONT
 10
0.0
 20
0.0
 30
0.0
  9
$UCSORGBACK
 10
0.0
 20
0.0
 30
0.0
  9
$PUCSBASE
  2

  9
$PUCSNAME
  2

  9
$PUCSORG
 10
0.0
 20
0.0
 30
0.0
  9
$PUCSXDIR
 10
1.0
 20
0.0
 30
0.0
  9
$PUCSYDIR
 10
0.0
 20
1.0
 30
0.0
  9
$PUCSORTHOREF
  2

  9
$PUCSORTHOVIEW
 70
     0
  9
$PUCSORGTOP
 10
0.0
 20
0.0
 30
0.0
  9
$PUCSORGBOTTOM
 10
0.0
 20
0.0
 30
0.0
  9
$PUCSORGLEFT
 10
0.0
 20
0.0
 30
0.0
  9
$PUCSORGRIGHT
 10
0.0
 20
0.0
 30
0.0
  9
$PUCSORGFRONT
 10
0.0
 20
0.0
 30
0.0
  9
$PUCSORGBACK
 10
0.0
 20
0.0
 30
0.0
  9
$USERI1
 70
     0
  9
$USERI2
 70
     0
  9
$USERI3
 70
     0
  9
$USERI4
 70
     0
  9
$USERI5
 70
     0
  9
$USERR1
 40
0.0
  9
$USERR2
 40
0.0
  9
$USERR3
 40
0.0
  9
$USERR4
 40
0.0
  9
$USERR5
 40
0.0
  9
$WORLDVIEW
 70
     1
  9
$SHADEDGE
 70
     3
  9
$SHADEDIF
 70
    70
  9
$TILEMODE
 70
     1
  9
$MAXACTVP
 70
    64
  9
$PINSBASE
 10
0.0
 20
0.0
 30
0.0
  9
$PLIMCHECK
 70
     0
  9
$PEXTMIN
 10
1.000000000000000E+20
 20
1.000000000000000E+20
 30
1.000000000000000E+20
  9
$PEXTMAX
 10
-1.000000000000000E+20
 20
-1.000000000000000E+20
 30
-1.000000000000000E+20
  9
$PLIMMIN
 10
0.0
 20
0.0
  9
$PLIMMAX
 10
12.0
 20
9.0
  9
$UNITMODE
 70
     0
  9
$VISRETAIN
 70
     1
  9
$PLINEGEN
 70
     0
  9
$PSLTSCALE
 70
     1
  9
$TREEDEPTH
 70
  3020
  9
$CMLSTYLE
  2
Standard
  9
$CMLJUST
 70
     0
  9
$CMLSCALE
 40
1.0
  9
$PROXYGRAPHICS
 70
     1
  9
$MEASUREMENT
 70
     0
  9
$CELWEIGHT
370
    -1
  9
$ENDCAPS
280
     0
  9
$JOINSTYLE
280
     0
  9
$LWDISPLAY
290
     0
  9
$INSUNITS
 70
     4
  9
$HYPERLINKBASE
  1

  9
$STYLESHEET
  1

  9
$XEDIT
290
     1
  9
$CEPSNTYPE
380
     0
  9
$PSTYLEMODE
290
     1
  9
$FINGERPRINTGUID
  2
{5C7767D4-A4C6-4AA1-98CF-1277DEDA94CF}
  9
$VERSIONGUID
  2
{FAEB1C32-E019-11D5-929B-00C0DF256EC4}
  9
$EXTNAMES
290
     1
  9
$PSVPSCALE
 40
0.0
  9
$OLESTARTUP
290
     0
  9
$SORTENTS
280
   127
  9
$INDEXCTL
280
     0
  9
$HIDETEXT
280
     1
  9
$XCLIPFRAME
290
     0
  9
$HALOGAP
280
     0
  9
$OBSCOLOR
 70
   257
  9
$OBSLTYPE
280
     0
  9
$INTERSECTIONDISPLAY
280
     0
  9
$INTERSECTIONCOLOR
 70
   257
  9
$DIMASSOC
280
     2
  9
$PROJECTNAME
  1

  0
ENDSEC
  0
SECTION
  2
CLASSES
  0
CLASS
  1
ACDBDICTIONARYWDFLT
  2
AcDbDictionaryWithDefault
  3
ObjectDBX Classes
 90
        0
 91
        4
280
     0
281
     0
  0
CLASS
  1
VISUALSTYLE
  2
AcDbVisualStyle
  3
ObjectDBX Classes
 90
     4095
 91
        4
280
     0
281
     0
  0
ENDSEC
  0
SECTION
  2
TABLES
  0
TABLE
  2
VPORT
  5
8
330
0
100
AcDbSymbolTable
 70
     1
  0
VPORT
  5
29
330
8
100
AcDbSymbolTableRecord
100
AcDbViewportTableRecord
  2
*Active
 70
     0
 10
0.0
 20
0.0
 11
1.0
 21
1.0
 12
30.0
 22
-30.96696090698242
 13
0.0
 23
0.0
 14
0.5
 24
0.5
 15
0.5
 25
0.5
 16
0.0
 26
0.0
 36
1.0
 17
0.0
 27
0.0
 37
0.0
 40
63.17260025024414
 41
0.9687744331809973
 42
50.0
 43
0.0
 44
0.0
 50
0.0
 51
0.0
 71
     0
 72
   100
 73
     1
 74
     3
 75
     0
 76
     0
 77
     0
 78
     0
281
     0
 65
     1
110
0.0
120
0.0
130
0.0
111
1.0
121
0.0
131
0.0
112
0.0
122
1.0
132
0.0
 79
     0
146
0.0
  0
ENDTAB
  0
TABLE
  2
LTYPE
  5
5
330
0
100
AcDbSymbolTable
 70
     1
  0
LTYPE
  5
14
330
5
100
AcDbSymbolTableRecord
100
AcDbLinetypeTableRecord
  2
ByBlock
 70
     0
  3

 72
    65
 73
     0
 40
0.0
  0
LTYPE
  5
15
330
5
100
AcDbSymbolTableRecord
100
AcDbLinetypeTableRecord
  2
ByLayer
 70
     0
  3

 72
    65
 73
     0
 40
0.0
  0
LTYPE
  5
16
330
5
100
AcDbSymbolTableRecord
100
AcDbLinetypeTableRecord
  2
Continuous
 70
     0
  3
Solid line
 72
    65
 73
     0
 40
0.0
  0
ENDTAB
  0
TABLE
  2
LAYER
  5
2
330
0
100
AcDbSymbolTable
 70
     3
  0
LAYER
  5
10
330
2
100
AcDbSymbolTableRecord
100
AcDbLayerTableRecord
  2
0
 70
     0
 62
     7
  6
Continuous
370
    -3
390
F
  0
LAYER
  5
3B
330
2
100
AcDbSymbolTableRecord
100
AcDbLayerTableRecord
  2
BASE
 70
     0
 62
    30
  6
Continuous
370
    -3
390
F
  0
LAYER
  5
138
330
2
100
AcDbSymbolTableRecord
100
AcDbLayerTableRecord
  2
CUPULA
 70
     0
 62
     1
  6
Continuous
370
    -3
390
F
  0
ENDTAB
  0
TABLE
  2
STYLE
  5
3
330
0
100
AcDbSymbolTable
 70
     1
  0
STYLE
  5
11
330
3
100
AcDbSymbolTableRecord
100
AcDbTextStyleTableRecord
  2
Standard
 70
     0
 40
0.0
 41
1.0
 50
0.0
 71
     0
 42
0.2
  3
txt
  4

  0
ENDTAB
  0
TABLE
  2
VIEW
  5
6
330
0
100
AcDbSymbolTable
 70
     0
  0
ENDTAB
  0
TABLE
  2
UCS
  5
7
330
0
100
AcDbSymbolTable
 70
     0
  0
ENDTAB
  0
TABLE
  2
APPID
  5
9
330
0
100
AcDbSymbolTable
 70
     1
  0
APPID
  5
12
330
9
100
AcDbSymbolTableRecord
100
AcDbRegAppTableRecord
  2
ACAD
 70
     0
  0
ENDTAB
  0
TABLE
  2
DIMSTYLE
  5
A
330
0
100
AcDbSymbolTable
 70
     1
100
AcDbDimStyleTable
  0
DIMSTYLE
105
27
330
A
100
AcDbSymbolTableRecord
100
AcDbDimStyleTableRecord
  2
Standard
 70
     0
340
11
  0
ENDTAB
  0
TABLE
  2
BLOCK_RECORD
  5
1
330
0
100
AcDbSymbolTable
 70
     1
  0
BLOCK_RECORD
  5
1F
330
1
100
AcDbSymbolTableRecord
100
AcDbBlockTableRecord
  2
*Model_Space
340
22
  0
BLOCK_RECORD
  5
1B
330
1
100
AcDbSymbolTableRecord
100
AcDbBlockTableRecord
  2
*Paper_Space
340
1E
  0
BLOCK_RECORD
  5
23
330
1
100
AcDbSymbolTableRecord
100
AcDbBlockTableRecord
  2
*Paper_Space0
340
26
  0
ENDTAB
  0
ENDSEC
  0
SECTION
  2
BLOCKS
  0
BLOCK
  5
20
330
1F
100
AcDbEntity
  8
0
100
AcDbBlockBegin
  2
*Model_Space
 70
     0
 10
0.0
 20
0.0
 30
0.0
  3
*Model_Space
  1

  0
ENDBLK
  5
21
330
1F
100
AcDbEntity
  8
0
100
AcDbBlockEnd
  0
BLOCK
  5
1C
330
1B
100
AcDbEntity
 67
     1
  8
0
100
AcDbBlockBegin
  2
*Paper_Space
 70
     0
 10
0.0
 20
0.0
 30
0.0
  3
*Paper_Space
  1

  0
ENDBLK
  5
1D
330
1B
100
AcDbEntity
 67
     1
  8
0
100
AcDbBlockEnd
  0
BLOCK
  5
24
330
23
100
AcDbEntity
  8
0
100
AcDbBlockBegin
  2
*Paper_Space0
 70
     0
 10
0.0
 20
0.0
 30
0.0
  3
*Paper_Space0
  1

  0
ENDBLK
  5
25
330
23
100
AcDbEntity
  8
0
100
AcDbBlockEnd
  0
ENDSEC
  0
SECTION
  2
ENTITIES
  0
POLYLINE
  5
3C
330
1F
100
AcDbEntity
  8
BASE
100
AcDbPolyFaceMesh
 66
     1
 10
0.0
 20
0.0
 30
0.0
 70
    64
 71
    10
 72
     4
  0
VERTEX
  5
3D
330
3C
100
AcDbEntity
  8
BASE
100
AcDbVertex
100
AcDbPolyFaceMeshVertex
 10
30.87648963928223
 20
-31.86345481872559
 30
45.38037490844727
 70
   192
  0
VERTEX
  5
3E
330
3C
100
AcDbEntity
  8
BASE
100
AcDbVertex
100
AcDbPolyFaceMeshVertex
 10
30.63420104980469
 20
-32.51755142211914
 30
45.38037490844727
 70
   192
  0
VERTEX
  5
3F
330
3C
100
AcDbEntity
  8
BASE
100
AcDbVertex
100
AcDbPolyFaceMeshVertex
 10
29.99501609802246
 20
-32.79682159423828
 30
45.38037490844727
 70
   192
  0
VERTEX
  5
40
330
3C
100
AcDbEntity
  8
BASE
100
AcDbVertex
100
AcDbPolyFaceMeshVertex
 10
29.35045433044434
 20
-32.53020095825195
 30
45.38037490844727
 70
   192
  0
VERTEX
  5
41
330
3C
100
AcDbEntity
  8
BASE
100
AcDbVertex
100
AcDbPolyFaceMeshVertex
 10
29.09532737731934
 20
-31.88100242614746
 30
45.38037490844727
 70
   192
  0
VERTEX
  5
42
330
3C
100
AcDbEntity
  8
BASE
100
AcDbVertex
100
AcDbPolyFaceMeshVertex
 10
30.87648963928223
 20
-31.86345481872559
 30
145.1072845458984
 70
   192
  0
VERTEX
  5
43
330
3C
100
AcDbEntity
  8
BASE
100
AcDbVertex
100
AcDbPolyFaceMeshVertex
 10
30.63420104980469
 20
-32.51755142211914
 30
145.1072845458984
 70
   192
  0
VERTEX
  5
44
330
3C
100
AcDbEntity
  8
BASE
100
AcDbVertex
100
AcDbPolyFaceMeshVertex
 10
29.99501609802246
 20
-32.79682159423828
 30
145.1072845458984
 70
   192
  0
VERTEX
  5
45
330
3C
100
AcDbEntity
  8
BASE
100
AcDbVertex
100
AcDbPolyFaceMeshVertex
 10
29.35045433044434
 20
-32.53020095825195
 30
145.1072845458984
 70
   192
  0
VERTEX
  5
46
330
3C
100
AcDbEntity
  8
BASE
100
AcDbVertex
100
AcDbPolyFaceMeshVertex
 10
29.09532737731934
 20
-31.88100242614746
 30
145.1072845458984
 70
   192
  0
VERTEX
  5
47
330
3C
100
AcDbEntity
  8
BASE
100
AcDbFaceRecord
 10
0.0
 20
0.0
 30
0.0
 70
   128
 71
     1
 72
     2
 73
     7
 74
     6
  0
VERTEX
  5
48
330
3C
100
AcDbEntity
  8
BASE
100
AcDbFaceRecord
 10
0.0
 20
0.0
 30
0.0
 70
   128
 71
     2
 72
     3
 73
     8
 74
     7
  0
VERTEX
  5
49
330
3C
100
AcDbEntity
  8
BASE
100
AcDbFaceRecord
 10
0.0
 20
0.0
 30
0.0
 70
   128
 71
     3
 72
     4
 73
     9
 74
     8
  0
VERTEX
  5
4A
330
3C
100
AcDbEntity
  8
BASE
100
AcDbFaceRecord
 10
0.0
 20
0.0
 30
0.0
 70
   128
 71
     4
 72
     5
 73
    10
 74
     9
  0
SEQEND
  5
4B
330
3C
100
AcDbEntity
  8
BASE
  0
POLYLINE
  5
4C
330
1F
100
AcDbEntity
  8
BASE
100
AcDbPolyFaceMesh
 66
     1
 10
0.0
 20
0.0
 30
0.0
 70
    64
 71
    10
 72
     4
  0
VERTEX
  5
4D
330
4C
100
AcDbEntity
  8
BASE
100
AcDbVertex
100
AcDbPolyFaceMeshVertex
 10
32.48078918457031
 20
-29.0847225189209
 30
45.38037490844727
 70
   192
  0
VERTEX
  5
4E
330
4C
100
AcDbEntity
  8
BASE
100
AcDbVertex
100
AcDbPolyFaceMeshVertex
 10
32.92610931396484
 20
-28.54784774780273
 30
45.38037490844727
 70
   192
  0
VERTEX
  5
4F
330
4C
100
AcDbEntity
  8
BASE
100
AcDbVertex
100
AcDbPolyFaceMeshVertex
 10
32.84836959838867
 20
-27.85466575622559
 30
45.38037490844727
 70
   192
  0
VERTEX
  5
50
330
4C
100
AcDbEntity
  8
BASE
100
AcDbVertex
100
AcDbPolyFaceMeshVertex
 10
32.29518890380859
 20
-27.42976951599121
 30
45.38037490844727
 70
   192
  0
VERTEX
  5
51
330
4C
100
AcDbEntity
  8
BASE
100
AcDbVertex
100
AcDbPolyFaceMeshVertex
 10
31.60540771484375
 20
-27.53342056274414
 30
45.38037490844727
 70
   192
  0
VERTEX
  5
52
330
4C
100
AcDbEntity
  8
BASE
100
AcDbVertex
100
AcDbPolyFaceMeshVertex
 10
32.48078918457031
 20
-29.0847225189209
 30
145.1072845458984
 70
   192
  0
VERTEX
  5
53
330
4C
100
AcDbEntity
  8
BASE
100
AcDbVertex
100
AcDbPolyFaceMeshVertex
 10
32.92610931396484
 20
-28.54784774780273
 30
145.1072845458984
 70
   192
  0
VERTEX
  5
54
330
4C
100
AcDbEntity
  8
BASE
100
AcDbVertex
100
AcDbPolyFaceMeshVertex
 10
32.84836959838867
 20
-27.85466575622559
 30
145.1072845458984
 70
   192
  0
VERTEX
  5
55
330
4C
100
AcDbEntity
  8
BASE
100
AcDbVertex
100
AcDbPolyFaceMeshVertex
 10
32.29518890380859
 20
-27.42976951599121
 30
145.1072845458984
 70
   192
  0
VERTEX
  5
56
330
4C
100
AcDbEntity
  8
BASE
100
AcDbVertex
100
AcDbPolyFaceMeshVertex
 10
31.60540771484375
 20
-27.53342056274414
 30
145.1072845458984
 70
   192
  0
VERTEX
  5
57
330
4C
100
AcDbEntity
  8
BASE
100
AcDbFaceRecord
 10
0.0
 20
0.0
 30
0.0
 70
   128
 71
     1
 72
     2
 73
     7
 74
     6
  0
VERTEX
  5
58
330
4C
100
AcDbEntity
  8
BASE
100
AcDbFaceRecord
 10
0.0
 20
0.0
 30
0.0
 70
   128
 71
     2
 72
     3
 73
     8
 74
     7
  0
VERTEX
  5
59
330
4C
100
AcDbEntity
  8
BASE
100
AcDbFaceRecord
 10
0.0
 20
0.0
 30
0.0
 70
   128
 71
     3
 72
     4
 73
     9
 74
     8
  0
VERTEX
  5
5A
330
4C
100
AcDbEntity
  8
BASE
100
AcDbFaceRecord
 10
0.0
 20
0.0
 30
0.0
 70
   128
 71
     4
 72
     5
 73
    10
 74
     9
  0
SEQEND
  5
5B
330
4C
100
AcDbEntity
  8
BASE
  0
POLYLINE
  5
5C
330
1F
100
AcDbEntity
  8
BASE
100
AcDbPolyFaceMesh
 66
     1
 10
0.0
 20
0.0
 30
0.0
 70
    64
 71
    10
 72
     4
  0
VERTEX
  5
5D
330
5C
100
AcDbEntity
  8
BASE
100
AcDbVertex
100
AcDbPolyFaceMeshVertex
 10
27.51822471618652
 20
-29.0847225189209
 30
45.38037490844727
 70
   192
  0
VERTEX
  5
5E
330
5C
100
AcDbEntity
  8
BASE
100
AcDbVertex
100
AcDbPolyFaceMeshVertex
 10
27.07290649414062
 20
-28.54784774780273
 30
45.38037490844727
 70
   192
  0
VERTEX
  5
5F
330
5C
100
AcDbEntity
  8
BASE
100
AcDbVertex
100
AcDbPolyFaceMeshVertex
 10
27.15064430236816
 20
-27.85466575622559
 30
45.38037490844727
 70
   192
  0
VERTEX
  5
60
330
5C
100
AcDbEntity
  8
BASE
100
AcDbVertex
100
AcDbPolyFaceMeshVertex
 10
27.70382308959961
 20
-27.42976951599121
 30
45.38037490844727
 70
   192
  0
VERTEX
  5
61
330
5C
100
AcDbEntity
  8
BASE
100
AcDbVertex
100
AcDbPolyFaceMeshVertex
 10
28.39361000061035
 20
-27.53342056274414
 30
45.38037490844727
 70
   192
  0
VERTEX
  5
62
330
5C
100
AcDbEntity
  8
BASE
100
AcDbVertex
100
AcDbPolyFaceMeshVertex
 10
27.51822471618652
 20
-29.0847225189209
 30
145.1072845458984
 70
   192
  0
VERTEX
  5
63
330
5C
100
AcDbEntity
  8
BASE
100
AcDbVertex
100
AcDbPolyFaceMeshVertex
 10
27.07290649414062
 20
-28.54784774780273
 30
145.1072845458984
 70
   192
  0
VERTEX
  5
64
330
5C
100
AcDbEntity
  8
BASE
100
AcDbVertex
100
AcDbPolyFaceMeshVertex
 10
27.15064430236816
 20
-27.85466575622559
 30
145.1072845458984
 70
   192
  0
VERTEX
  5
65
330
5C
100
AcDbEntity
  8
BASE
100
AcDbVertex
100
AcDbPolyFaceMeshVertex
 10
27.70382308959961
 20
-27.42976951599121
 30
145.1072845458984
 70
   192
  0
VERTEX
  5
66
330
5C
100
AcDbEntity
  8
BASE
100
AcDbVertex
100
AcDbPolyFaceMeshVertex
 10
28.39361000061035
 20
-27.53342056274414
 30
145.1072845458984
 70
   192
  0
VERTEX
  5
67
330
5C
100
AcDbEntity
  8
BASE
100
AcDbFaceRecord
 10
0.0
 20
0.0
 30
0.0
 70
   128
 71
     1
 72
     2
 73
     7
 74
     6
  0
VERTEX
  5
68
330
5C
100
AcDbEntity
  8
BASE
100
AcDbFaceRecord
 10
0.0
 20
0.0
 30
0.0
 70
   128
 71
     2
 72
     3
 73
     8
 74
     7
  0
VERTEX
  5
69
330
5C
100
AcDbEntity
  8
BASE
100
AcDbFaceRecord
 10
0.0
 20
0.0
 30
0.0
 70
   128
 71
     3
 72
     4
 73
     9
 74
     8
  0
VERTEX
  5
6A
330
5C
100
AcDbEntity
  8
BASE
100
AcDbFaceRecord
 10
0.0
 20
0.0
 30
0.0
 70
   128
 71
     4
 72
     5
 73
    10
 74
     9
  0
SEQEND
  5
6B
330
5C
100
AcDbEntity
  8
BASE
  0
POLYLINE
  5
6C
330
1F
100
AcDbEntity
  8
BASE
100
AcDbPolyFaceMesh
 66
     1
 10
0.0
 20
0.0
 30
0.0
 70
    64
 71
    30
 72
    20
  0
VERTEX
  5
6D
330
6C
100
AcDbEntity
  8
BASE
100
AcDbVertex
100
AcDbPolyFaceMeshVertex
 10
29.09532737731934
 20
-31.88100242614746
 30
45.38037490844727
 70
   192
  0
VERTEX
  5
6E
330
6C
100
AcDbEntity
  8
BASE
100
AcDbVertex
100
AcDbPolyFaceMeshVertex
 10
29.09532737731934
 20
-32.09524154663086
 30
43.90400314331055
 70
   192
  0
VERTEX
  5
6F
330
6C
100
AcDbEntity
  8
BASE
100
AcDbVertex
100
AcDbPolyFaceMeshVertex
 10
29.09532737731934
 20
-32.45253753662109
 30
42.45558929443359
 70
   192
  0
VERTEX
  5
70
330
6C
100
AcDbEntity
  8
BASE
100
AcDbVertex
100
AcDbPolyFaceMeshVertex
 10
29.09532737731934
 20
-32.94948959350586
 30
41.0489616394043
 70
   192
  0
VERTEX
  5
71
330
6C
100
AcDbEntity
  8
BASE
100
AcDbVertex
100
AcDbPolyFaceMeshVertex
 10
29.09532737731934
 20
-33.58134841918945
 30
39.69754791259766
 70
   192
  0
VERTEX
  5
72
330
6C
100
AcDbEntity
  8
BASE
100
AcDbVertex
100
AcDbPolyFaceMeshVertex
 10
29.09532737731934
 20
-34.34207916259766
 30
38.41424942016602
 70
   192
  0
VERTEX
  5
73
330
6C
100
AcDbEntity
  8
BASE
100
AcDbVertex
100
AcDbPolyFaceMeshVertex
 10
29.35488891601562
 20
-32.5347900390625
 30
45.38037490844727
 70
   192
  0
VERTEX
  5
74
330
6C
100
AcDbEntity
  8
BASE
100
AcDbVertex
100
AcDbPolyFaceMeshVertex
 10
29.35556411743164
 20
-32.71769332885742
 30
43.9874267578125
 70
   192
  0
VERTEX
  5
75
330
6C
100
AcDbEntity
  8
BASE
100
AcDbVertex
100
AcDbPolyFaceMeshVertex
 10
29.35624122619629
 20
-33.04365921020508
 30
42.62244415283203
 70
   192
  0
VERTEX
  5
76
330
6C
100
AcDbEntity
  8
BASE
100
AcDbVertex
100
AcDbPolyFaceMeshVertex
 10
29.35691452026367
 20
-33.50928115844727
 30
41.29925155639648
 70
   192
  0
VERTEX
  5
77
330
6C
100
AcDbEntity
  8
BASE
100
AcDbVertex
100
AcDbPolyFaceMeshVertex
 10
29.35759353637695
 20
-34.10980987548828
 30
40.03127288818359
 70
   192
  0
VERTEX
  5
78
330
6C
100
AcDbEntity
  8
BASE
100
AcDbVertex
100
AcDbPolyFaceMeshVertex
 10
29.35826683044434
 20
-34.83922576904297
 30
38.83140563964844
 70
   192
  0
VERTEX
  5
79
330
6C
100
AcDbEntity
  8
BASE
100
AcDbVertex
100
AcDbPolyFaceMeshVertex
 10
29.99501609802246
 20
-32.79682159423828
 30
45.38037490844727
 70
   192
  0
VERTEX
  5
7A
330
6C
100
AcDbEntity
  8
BASE
100
AcDbVertex
100
AcDbPolyFaceMeshVertex
 10
29.99502182006836
 20
-32.96865081787109
 30
44.02210998535156
 70
   192
  0
VERTEX
  5
7B
330
6C
100
AcDbEntity
  8
BASE
100
AcDbVertex
100
AcDbPolyFaceMeshVertex
 10
29.99502944946289
 20
-33.28355407714844
 30
42.69182205200195
 70
   192
  0
VERTEX
  5
7C
330
6C
100
AcDbEntity
  8
BASE
100
AcDbVertex
100
AcDbPolyFaceMeshVertex
 10
29.99503517150879
 20
-33.73811340332031
 30
41.40332794189453
 70
   192
  0
VERTEX
  5
7D
330
6C
100
AcDbEntity
  8
BASE
100
AcDbVertex
100
AcDbPolyFaceMeshVertex
 10
29.99504089355469
 20
-34.32758331298828
 30
40.17004013061523
 70
   192
  0
VERTEX
  5
7E
330
6C
100
AcDbEntity
  8
BASE
100
AcDbVertex
100
AcDbPolyFaceMeshVertex
 10
29.99504661560059
 20
-35.04594802856445
 30
39.00486755371094
 70
   192
  0
VERTEX
  5
7F
330
6C
100
AcDbEntity
  8
BASE
100
AcDbVertex
100
AcDbPolyFaceMeshVertex
 10
30.62985801696777
 20
-32.5222282409668
 30
45.38037490844727
 70
   192
  0
VERTEX
  5
80
330
6C
100
AcDbEntity
  8
BASE
100
AcDbVertex
100
AcDbPolyFaceMeshVertex
 10
30.62916564941406
 20
-32.70571517944336
 30
43.98580169677734
 70
   192
  0
VERTEX
  5
81
330
6C
100
AcDbEntity
  8
BASE
100
AcDbVertex
100
AcDbPolyFaceMeshVertex
 10
30.62846946716309
 20
-33.03226852416992
 30
42.61921691894531
 70
   192
  0
VERTEX
  5
82
330
6C
100
AcDbEntity
  8
BASE
100
AcDbVertex
100
AcDbPolyFaceMeshVertex
 10
30.62777328491211
 20
-33.49848556518555
 30
41.29442596435547
 70
   192
  0
VERTEX
  5
83
330
6C
100
AcDbEntity
  8
BASE
100
AcDbVertex
100
AcDbPolyFaceMeshVertex
 10
30.62707901000977
 20
-34.0996208190918
 30
40.02484893798828
 70
   192
  0
VERTEX
  5
84
330
6C
100
AcDbEntity
  8
BASE
100
AcDbVertex
100
AcDbPolyFaceMeshVertex
 10
30.62638473510742
 20
-34.82965469360352
 30
38.82337188720703
 70
   192
  0
VERTEX
  5
85
330
6C
100
AcDbEntity
  8
BASE
100
AcDbVertex
100
AcDbPolyFaceMeshVertex
 10
30.87648963928223
 20
-31.86345481872559
 30
45.38037490844727
 70
   192
  0
VERTEX
  5
86
330
6C
100
AcDbEntity
  8
BASE
100
AcDbVertex
100
AcDbPolyFaceMeshVertex
 10
30.87648963928223
 20
-32.07848358154297
 30
43.90171051025391
 70
   192
  0
VERTEX
  5
87
330
6C
100
AcDbEntity
  8
BASE
100
AcDbVertex
100
AcDbPolyFaceMeshVertex
 10
30.87648963928223
 20
-32.43658828735352
 30
42.45104217529297
 70
   192
  0
VERTEX
  5
88
330
6C
100
AcDbEntity
  8
BASE
100
AcDbVertex
100
AcDbPolyFaceMeshVertex
 10
30.87648963928223
 20
-32.93434906005859
 30
41.04217910766602
 70
   192
  0
VERTEX
  5
89
330
6C
100
AcDbEntity
  8
BASE
100
AcDbVertex
100
AcDbPolyFaceMeshVertex
 10
30.87648963928223
 20
-33.56703948974609
 30
39.68852615356445
 70
   192
  0
VERTEX
  5
8A
330
6C
100
AcDbEntity
  8
BASE
100
AcDbVertex
100
AcDbPolyFaceMeshVertex
 10
30.87648963928223
 20
-34.32863616943359
 30
38.40296936035156
 70
   192
  0
VERTEX
  5
8B
330
6C
100
AcDbEntity
  8
BASE
100
AcDbFaceRecord
 10
0.0
 20
0.0
 30
0.0
 70
   128
 71
     1
 72
     2
 73
     8
 74
     7
  0
VERTEX
  5
8C
330
6C
100
AcDbEntity
  8
BASE
100
AcDbFaceRecord
 10
0.0
 20
0.0
 30
0.0
 70
   128
 71
     2
 72
     3
 73
     9
 74
     8
  0
VERTEX
  5
8D
330
6C
100
AcDbEntity
  8
BASE
100
AcDbFaceRecord
 10
0.0
 20
0.0
 30
0.0
 70
   128
 71
     3
 72
     4
 73
    10
 74
     9
  0
VERTEX
  5
8E
330
6C
100
AcDbEntity
  8
BASE
100
AcDbFaceRecord
 10
0.0
 20
0.0
 30
0.0
 70
   128
 71
     4
 72
     5
 73
    11
 74
    10
  0
VERTEX
  5
8F
330
6C
100
AcDbEntity
  8
BASE
100
AcDbFaceRecord
 10
0.0
 20
0.0
 30
0.0
 70
   128
 71
     5
 72
     6
 73
    12
 74
    11
  0
VERTEX
  5
90
330
6C
100
AcDbEntity
  8
BASE
100
AcDbFaceRecord
 10
0.0
 20
0.0
 30
0.0
 70
   128
 71
     7
 72
     8
 73
    14
 74
    13
  0
VERTEX
  5
91
330
6C
100
AcDbEntity
  8
BASE
100
AcDbFaceRecord
 10
0.0
 20
0.0
 30
0.0
 70
   128
 71
     8
 72
     9
 73
    15
 74
    14
  0
VERTEX
  5
92
330
6C
100
AcDbEntity
  8
BASE
100
AcDbFaceRecord
 10
0.0
 20
0.0
 30
0.0
 70
   128
 71
     9
 72
    10
 73
    16
 74
    15
  0
VERTEX
  5
93
330
6C
100
AcDbEntity
  8
BASE
100
AcDbFaceRecord
 10
0.0
 20
0.0
 30
0.0
 70
   128
 71
    10
 72
    11
 73
    17
 74
    16
  0
VERTEX
  5
94
330
6C
100
AcDbEntity
  8
BASE
100
AcDbFaceRecord
 10
0.0
 20
0.0
 30
0.0
 70
   128
 71
    11
 72
    12
 73
    18
 74
    17
  0
VERTEX
  5
95
330
6C
100
AcDbEntity
  8
BASE
100
AcDbFaceRecord
 10
0.0
 20
0.0
 30
0.0
 70
   128
 71
    13
 72
    14
 73
    20
 74
    19
  0
VERTEX
  5
96
330
6C
100
AcDbEntity
  8
BASE
100
AcDbFaceRecord
 10
0.0
 20
0.0
 30
0.0
 70
   128
 71
    14
 72
    15
 73
    21
 74
    20
  0
VERTEX
  5
97
330
6C
100
AcDbEntity
  8
BASE
100
AcDbFaceRecord
 10
0.0
 20
0.0
 30
0.0
 70
   128
 71
    15
 72
    16
 73
    22
 74
    21
  0
VERTEX
  5
98
330
6C
100
AcDbEntity
  8
BASE
100
AcDbFaceRecord
 10
0.0
 20
0.0
 30
0.0
 70
   128
 71
    16
 72
    17
 73
    23
 74
    22
  0
VERTEX
  5
99
330
6C
100
AcDbEntity
  8
BASE
100
AcDbFaceRecord
 10
0.0
 20
0.0
 30
0.0
 70
   128
 71
    17
 72
    18
 73
    24
 74
    23
  0
VERTEX
  5
9A
330
6C
100
AcDbEntity
  8
BASE
100
AcDbFaceRecord
 10
0.0
 20
0.0
 30
0.0
 70
   128
 71
    19
 72
    20
 73
    26
 74
    25
  0
VERTEX
  5
9B
330
6C
100
AcDbEntity
  8
BASE
100
AcDbFaceRecord
 10
0.0
 20
0.0
 30
0.0
 70
   128
 71
    20
 72
    21
 73
    27
 74
    26
  0
VERTEX
  5
9C
330
6C
100
AcDbEntity
  8
BASE
100
AcDbFaceRecord
 10
0.0
 20
0.0
 30
0.0
 70
   128
 71
    21
 72
    22
 73
    28
 74
    27
  0
VERTEX
  5
9D
330
6C
100
AcDbEntity
  8
BASE
100
AcDbFaceRecord
 10
0.0
 20
0.0
 30
0.0
 70
   128
 71
    22
 72
    23
 73
    29
 74
    28
  0
VERTEX
  5
9E
330
6C
100
AcDbEntity
  8
BASE
100
AcDbFaceRecord
 10
0.0
 20
0.0
 30
0.0
 70
   128
 71
    23
 72
    24
 73
    30
 74
    29
  0
SEQEND
  5
9F
330
6C
100
AcDbEntity
  8
BASE
  0
POLYLINE
  5
A0
330
1F
100
AcDbEntity
  8
BASE
100
AcDbPolyFaceMesh
 66
     1
 10
0.0
 20
0.0
 30
0.0
 70
    64
 71
    10
 72
     4
  0
VERTEX
  5
A1
330
A0
100
AcDbEntity
  8
BASE
100
AcDbVertex
100
AcDbPolyFaceMeshVertex
 10
29.09532737731934
 20
-34.34207916259766
 30
38.41424942016602
 70
   192
  0
VERTEX
  5
A2
330
A0
100
AcDbEntity
  8
BASE
100
AcDbVertex
100
AcDbPolyFaceMeshVertex
 10
29.35826683044434
 20
-34.83922576904297
 30
38.83140563964844
 70
   192
  0
VERTEX
  5
A3
330
A0
100
AcDbEntity
  8
BASE
100
AcDbVertex
100
AcDbPolyFaceMeshVertex
 10
29.99504661560059
 20
-35.04594802856445
 30
39.00486755371094
 70
   192
  0
VERTEX
  5
A4
330
A0
100
AcDbEntity
  8
BASE
100
AcDbVertex
100
AcDbPolyFaceMeshVertex
 10
30.62638473510742
 20
-34.82965469360352
 30
38.82337188720703
 70
   192
  0
VERTEX
  5
A5
330
A0
100
AcDbEntity
  8
BASE
100
AcDbVertex
100
AcDbPolyFaceMeshVertex
 10
30.87648963928223
 20
-34.32863616943359
 30
38.40296936035156
 70
   192
  0
VERTEX
  5
A6
330
A0
100
AcDbEntity
  8
BASE
100
AcDbVertex
100
AcDbPolyFaceMeshVertex
 10
29.09532737731934
 20
-61.01813888549805
 30
0.0146171180531383
 70
   192
  0
VERTEX
  5
A7
330
A0
100
AcDbEntity
  8
BASE
100
AcDbVertex
100
AcDbPolyFaceMeshVertex
 10
29.35488891601562
 20
-61.67190551757812
 30
0.0203637480735779
 70
   192
  0
VERTEX
  5
A8
330
A0
100
AcDbEntity
  8
BASE
100
AcDbVertex
100
AcDbPolyFaceMeshVertex
 10
29.99501609802246
 20
-61.93392181396484
 30
0.0226669199764729
 70
   192
  0
VERTEX
  5
A9
330
A0
100
AcDbEntity
  8
BASE
100
AcDbVertex
100
AcDbPolyFaceMeshVertex
 10
30.62985801696777
 20
-61.65934371948242
 30
0.0202533360570669
 70
   192
  0
VERTEX
  5
AA
330
A0
100
AcDbEntity
  8
BASE
100
AcDbVertex
100
AcDbPolyFaceMeshVertex
 10
30.87648963928223
 20
-61.00059127807617
 30
0.0144628714770079
 70
   192
  0
VERTEX
  5
AB
330
A0
100
AcDbEntity
  8
BASE
100
AcDbFaceRecord
 10
0.0
 20
0.0
 30
0.0
 70
   128
 71
     1
 72
     2
 73
     7
 74
     6
  0
VERTEX
  5
AC
330
A0
100
AcDbEntity
  8
BASE
100
AcDbFaceRecord
 10
0.0
 20
0.0
 30
0.0
 70
   128
 71
     2
 72
     3
 73
     8
 74
     7
  0
VERTEX
  5
AD
330
A0
100
AcDbEntity
  8
BASE
100
AcDbFaceRecord
 10
0.0
 20
0.0
 30
0.0
 70
   128
 71
     3
 72
     4
 73
     9
 74
     8
  0
VERTEX
  5
AE
330
A0
100
AcDbEntity
  8
BASE
100
AcDbFaceRecord
 10
0.0
 20
0.0
 30
0.0
 70
   128
 71
     4
 72
     5
 73
    10
 74
     9
  0
SEQEND
  5
AF
330
A0
100
AcDbEntity
  8
BASE
  0
POLYLINE
  5
B0
330
1F
100
AcDbEntity
  8
BASE
100
AcDbPolyFaceMesh
 66
     1
 10
0.0
 20
0.0
 30
0.0
 70
    64
 71
    30
 72
    20
  0
VERTEX
  5
B1
330
B0
100
AcDbEntity
  8
BASE
100
AcDbVertex
100
AcDbPolyFaceMeshVertex
 10
28.46007347106934
 20
-27.50864028930664
 30
45.38037490844727
 70
   192
  0
VERTEX
  5
B2
330
B0
100
AcDbEntity
  8
BASE
100
AcDbVertex
100
AcDbPolyFaceMeshVertex
 10
28.27853965759277
 20
-27.39487648010254
 30
43.90400314331055
 70
   192
  0
VERTEX
  5
B3
330
B0
100
AcDbEntity
  8
BASE
100
AcDbVertex
100
AcDbPolyFaceMeshVertex
 10
27.97577857971191
 20
-27.20514297485352
 30
42.45558929443359
 70
   192
  0
VERTEX
  5
B4
330
B0
100
AcDbEntity
  8
BASE
100
AcDbVertex
100
AcDbPolyFaceMeshVertex
 10
27.55468368530273
 20
-26.94124984741211
 30
41.0489616394043
 70
   192
  0
VERTEX
  5
B5
330
B0
100
AcDbEntity
  8
BASE
100
AcDbVertex
100
AcDbPolyFaceMeshVertex
 10
27.0192756652832
 20
-26.6057186126709
 30
39.69754791259766
 70
   192
  0
VERTEX
  5
B6
330
B0
100
AcDbEntity
  8
BASE
100
AcDbVertex
100
AcDbPolyFaceMeshVertex
 10
26.37466430664062
 20
-26.20175552368164
 30
38.41424942016602
 70
   192
  0
VERTEX
  5
B7
330
B0
100
AcDbEntity
  8
BASE
100
AcDbVertex
100
AcDbPolyFaceMeshVertex
 10
27.76824951171875
 20
-27.38140487670898
 30
45.38037490844727
 70
   192
  0
VERTEX
  5
B8
330
B0
100
AcDbEntity
  8
BASE
100
AcDbVertex
100
AcDbPolyFaceMeshVertex
 10
27.6129093170166
 20
-27.28485488891602
 30
43.9874267578125
 70
   192
  0
VERTEX
  5
B9
330
B0
100
AcDbEntity
  8
BASE
100
AcDbVertex
100
AcDbPolyFaceMeshVertex
 10
27.33633804321289
 20
-27.11232948303223
 30
42.62244415283203
 70
   192
  0
VERTEX
  5
BA
330
B0
100
AcDbEntity
  8
BASE
100
AcDbVertex
100
AcDbPolyFaceMeshVertex
 10
26.94143104553223
 20
-26.86565017700195
 30
41.29925155639648
 70
   192
  0
VERTEX
  5
BB
330
B0
100
AcDbEntity
  8
BASE
100
AcDbVertex
100
AcDbPolyFaceMeshVertex
 10
26.43220901489258
 20
-26.54732704162598
 30
40.03127288818359
 70
   192
  0
VERTEX
  5
BC
330
B0
100
AcDbEntity
  8
BASE
100
AcDbVertex
100
AcDbPolyFaceMeshVertex
 10
25.81377601623535
 20
-26.16056442260742
 30
38.83140563964844
 70
   192
  0
VERTEX
  5
BD
330
B0
100
AcDbEntity
  8
BASE
100
AcDbVertex
100
AcDbPolyFaceMeshVertex
 10
27.20629501342773
 20
-27.7846794128418
 30
45.38037490844727
 70
   192
  0
VERTEX
  5
BE
330
B0
100
AcDbEntity
  8
BASE
100
AcDbVertex
100
AcDbPolyFaceMeshVertex
 10
27.06068801879883
 20
-27.69343948364258
 30
44.02210998535156
 70
   192
  0
VERTEX
  5
BF
330
B0
100
AcDbEntity
  8
BASE
100
AcDbVertex
100
AcDbPolyFaceMeshVertex
 10
26.79384994506836
 20
-27.52622413635254
 30
42.69182205200195
 70
   192
  0
VERTEX
  5
C0
330
B0
100
AcDbEntity
  8
BASE
100
AcDbVertex
100
AcDbPolyFaceMeshVertex
 10
26.40867233276367
 20
-27.28484725952148
 30
41.40332794189453
 70
   192
  0
VERTEX
  5
C1
330
B0
100
AcDbEntity
  8
BASE
100
AcDbVertex
100
AcDbPolyFaceMeshVertex
 10
25.90917587280273
 20
-26.97182846069336
 30
40.17004013061523
 70
   192
  0
VERTEX
  5
C2
330
B0
100
AcDbEntity
  8
BASE
100
AcDbVertex
100
AcDbPolyFaceMeshVertex
 10
25.30046272277832
 20
-26.59036827087402
 30
39.00486755371094
 70
   192
  0
VERTEX
  5
C3
330
B0
100
AcDbEntity
  8
BASE
100
AcDbVertex
100
AcDbPolyFaceMeshVertex
 10
27.10185623168945
 20
-28.46843338012695
 30
45.38037490844727
 70
   192
  0
VERTEX
  5
C4
330
B0
100
AcDbEntity
  8
BASE
100
AcDbVertex
100
AcDbPolyFaceMeshVertex
 10
26.94674682617188
 20
-28.37041091918945
 30
43.98580169677734
 70
   192
  0
VERTEX
  5
C5
330
B0
100
AcDbEntity
  8
BASE
100
AcDbVertex
100
AcDbPolyFaceMeshVertex
 10
26.67040634155273
 20
-28.1964111328125
 30
42.61921691894531
 70
   192
  0
VERTEX
  5
C6
330
B0
100
AcDbEntity
  8
BASE
100
AcDbVertex
100
AcDbPolyFaceMeshVertex
 10
26.27572250366211
 20
-27.94825172424316
 30
41.29442596435547
 70
   192
  0
VERTEX
  5
C7
330
B0
100
AcDbEntity
  8
BASE
100
AcDbVertex
100
AcDbPolyFaceMeshVertex
 10
25.76671409606934
 20
-27.62844467163086
 30
40.02484893798828
 70
   192
  0
VERTEX
  5
C8
330
B0
100
AcDbEntity
  8
BASE
100
AcDbVertex
100
AcDbPolyFaceMeshVertex
 10
25.14848709106445
 20
-27.24019432067871
 30
38.82337188720703
 70
   192
  0
VERTEX
  5
C9
330
B0
100
AcDbEntity
  8
BASE
100
AcDbVertex
100
AcDbPolyFaceMeshVertex
 10
27.52910804748535
 20
-29.02724075317383
 30
45.38037490844727
 70
   192
  0
VERTEX
  5
CA
330
B0
100
AcDbEntity
  8
BASE
100
AcDbVertex
100
AcDbPolyFaceMeshVertex
 10
27.34689903259277
 20
-28.91305541992188
 30
43.90171051025391
 70
   192
  0
VERTEX
  5
CB
330
B0
100
AcDbEntity
  8
BASE
100
AcDbVertex
100
AcDbPolyFaceMeshVertex
 10
27.04346084594727
 20
-28.7228946685791
 30
42.45104217529297
 70
   192
  0
VERTEX
  5
CC
330
B0
100
AcDbEntity
  8
BASE
100
AcDbVertex
100
AcDbPolyFaceMeshVertex
 10
26.62167739868164
 20
-28.45856857299805
 30
41.04217910766602
 70
   192
  0
VERTEX
  5
CD
330
B0
100
AcDbEntity
  8
BASE
100
AcDbVertex
100
AcDbPolyFaceMeshVertex
 10
26.0855598449707
 20
-28.12259864807129
 30
39.68852615356445
 70
   192
  0
VERTEX
  5
CE
330
B0
100
AcDbEntity
  8
BASE
100
AcDbVertex
100
AcDbPolyFaceMeshVertex
 10
25.44021987915039
 20
-27.71817588806152
 30
38.40296936035156
 70
   192
  0
VERTEX
  5
CF
330
B0
100
AcDbEntity
  8
BASE
100
AcDbFaceRecord
 10
0.0
 20
0.0
 30
0.0
 70
   128
 71
     1
 72
     2
 73
     8
 74
     7
  0
VERTEX
  5
D0
330
B0
100
AcDbEntity
  8
BASE
100
AcDbFaceRecord
 10
0.0
 20
0.0
 30
0.0
 70
   128
 71
     2
 72
     3
 73
     9
 74
     8
  0
VERTEX
  5
D1
330
B0
100
AcDbEntity
  8
BASE
100
AcDbFaceRecord
 10
0.0
 20
0.0
 30
0.0
 70
   128
 71
     3
 72
     4
 73
    10
 74
     9
  0
VERTEX
  5
D2
330
B0
100
AcDbEntity
  8
BASE
100
AcDbFaceRecord
 10
0.0
 20
0.0
 30
0.0
 70
   128
 71
     4
 72
     5
 73
    11
 74
    10
  0
VERTEX
  5
D3
330
B0
100
AcDbEntity
  8
BASE
100
AcDbFaceRecord
 10
0.0
 20
0.0
 30
0.0
 70
   128
 71
     5
 72
     6
 73
    12
 74
    11
  0
VERTEX
  5
D4
330
B0
100
AcDbEntity
  8
BASE
100
AcDbFaceRecord
 10
0.0
 20
0.0
 30
0.0
 70
   128
 71
     7
 72
     8
 73
    14
 74
    13
  0
VERTEX
  5
D5
330
B0
100
AcDbEntity
  8
BASE
100
AcDbFaceRecord
 10
0.0
 20
0.0
 30
0.0
 70
   128
 71
     8
 72
     9
 73
    15
 74
    14
  0
VERTEX
  5
D6
330
B0
100
AcDbEntity
  8
BASE
100
AcDbFaceRecord
 10
0.0
 20
0.0
 30
0.0
 70
   128
 71
     9
 72
    10
 73
    16
 74
    15
  0
VERTEX
  5
D7
330
B0
100
AcDbEntity
  8
BASE
100
AcDbFaceRecord
 10
0.0
 20
0.0
 30
0.0
 70
   128
 71
    10
 72
    11
 73
    17
 74
    16
  0
VERTEX
  5
D8
330
B0
100
AcDbEntity
  8
BASE
100
AcDbFaceRecord
 10
0.0
 20
0.0
 30
0.0
 70
   128
 71
    11
 72
    12
 73
    18
 74
    17
  0
VERTEX
  5
D9
330
B0
100
AcDbEntity
  8
BASE
100
AcDbFaceRecord
 10
0.0
 20
0.0
 30
0.0
 70
   128
 71
    13
 72
    14
 73
    20
 74
    19
  0
VERTEX
  5
DA
330
B0
100
AcDbEntity
  8
BASE
100
AcDbFaceRecord
 10
0.0
 20
0.0
 30
0.0
 70
   128
 71
    14
 72
    15
 73
    21
 74
    20
  0
VERTEX
  5
DB
330
B0
100
AcDbEntity
  8
BASE
100
AcDbFaceRecord
 10
0.0
 20
0.0
 30
0.0
 70
   128
 71
    15
 72
    16
 73
    22
 74
    21
  0
VERTEX
  5
DC
330
B0
100
AcDbEntity
  8
BASE
100
AcDbFaceRecord
 10
0.0
 20
0.0
 30
0.0
 70
   128
 71
    16
 72
    17
 73
    23
 74
    22
  0
VERTEX
  5
DD
330
B0
100
AcDbEntity
  8
BASE
100
AcDbFaceRecord
 10
0.0
 20
0.0
 30
0.0
 70
   128
 71
    17
 72
    18
 73
    24
 74
    23
  0
VERTEX
  5
DE
330
B0
100
AcDbEntity
  8
BASE
100
AcDbFaceRecord
 10
0.0
 20
0.0
 30
0.0
 70
   128
 71
    19
 72
    20
 73
    26
 74
    25
  0
VERTEX
  5
DF
330
B0
100
AcDbEntity
  8
BASE
100
AcDbFaceRecord
 10
0.0
 20
0.0
 30
0.0
 70
   128
 71
    20
 72
    21
 73
    27
 74
    26
  0
VERTEX
  5
E0
330
B0
100
AcDbEntity
  8
BASE
100
AcDbFaceRecord
 10
0.0
 20
0.0
 30
0.0
 70
   128
 71
    21
 72
    22
 73
    28
 74
    27
  0
VERTEX
  5
E1
330
B0
100
AcDbEntity
  8
BASE
100
AcDbFaceRecord
 10
0.0
 20
0.0
 30
0.0
 70
   128
 71
    22
 72
    23
 73
    29
 74
    28
  0
VERTEX
  5
E2
330
B0
100
AcDbEntity
  8
BASE
100
AcDbFaceRecord
 10
0.0
 20
0.0
 30
0.0
 70
   128
 71
    23
 72
    24
 73
    30
 74
    29
  0
SEQEND
  5
E3
330
B0
100
AcDbEntity
  8
BASE
  0
POLYLINE
  5
E4
330
1F
100
AcDbEntity
  8
BASE
100
AcDbPolyFaceMesh
 66
     1
 10
0.0
 20
0.0
 30
0.0
 70
    64
 71
    10
 72
     4
  0
VERTEX
  5
E5
330
E4
100
AcDbEntity
  8
BASE
100
AcDbVertex
100
AcDbPolyFaceMeshVertex
 10
26.37466430664062
 20
-26.20175552368164
 30
38.41424942016602
 70
   192
  0
VERTEX
  5
E6
330
E4
100
AcDbEntity
  8
BASE
100
AcDbVertex
100
AcDbPolyFaceMeshVertex
 10
25.81377601623535
 20
-26.16056442260742
 30
38.83140563964844
 70
   192
  0
VERTEX
  5
E7
330
E4
100
AcDbEntity
  8
BASE
100
AcDbVertex
100
AcDbPolyFaceMeshVertex
 10
25.30046272277832
 20
-26.59036827087402
 30
39.00486755371094
 70
   192
  0
VERTEX
  5
E8
330
E4
100
AcDbEntity
  8
BASE
100
AcDbVertex
100
AcDbPolyFaceMeshVertex
 10
25.14848709106445
 20
-27.24019432067871
 30
38.82337188720703
 70
   192
  0
VERTEX
  5
E9
330
E4
100
AcDbEntity
  8
BASE
100
AcDbVertex
100
AcDbPolyFaceMeshVertex
 10
25.44021987915039
 20
-27.71817588806152
 30
38.40296936035156
 70
   192
  0
VERTEX
  5
EA
330
E4
100
AcDbEntity
  8
BASE
100
AcDbVertex
100
AcDbPolyFaceMeshVertex
 10
2.923131942749023
 20
-11.50515079498291
 30
0.0146171180531383
 70
   192
  0
VERTEX
  5
EB
330
E4
100
AcDbEntity
  8
BASE
100
AcDbVertex
100
AcDbPolyFaceMeshVertex
 10
2.231329441070557
 20
-11.37792873382568
 30
0.0203637480735779
 70
   192
  0
VERTEX
  5
EC
330
E4
100
AcDbEntity
  8
BASE
100
AcDbVertex
100
AcDbPolyFaceMeshVertex
 10
1.66938304901123
 20
-11.78120994567871
 30
0.0226669199764729
 70
   192
  0
VERTEX
  5
ED
330
E4
100
AcDbEntity
  8
BASE
100
AcDbVertex
100
AcDbPolyFaceMeshVertex
 10
1.564934730529785
 20
-12.46495628356934
 30
0.0202533360570669
 70
   192
  0
VERTEX
  5
EE
330
E4
100
AcDbEntity
  8
BASE
100
AcDbVertex
100
AcDbPolyFaceMeshVertex
 10
1.992164969444275
 20
-13.02375030517578
 30
0.0144628714770079
 70
   192
  0
VERTEX
  5
EF
330
E4
100
AcDbEntity
  8
BASE
100
AcDbFaceRecord
 10
0.0
 20
0.0
 30
0.0
 70
   128
 71
     1
 72
     2
 73
     7
 74
     6
  0
VERTEX
  5
F0
330
E4
100
AcDbEntity
  8
BASE
100
AcDbFaceRecord
 10
0.0
 20
0.0
 30
0.0
 70
   128
 71
     2
 72
     3
 73
     8
 74
     7
  0
VERTEX
  5
F1
330
E4
100
AcDbEntity
  8
BASE
100
AcDbFaceRecord
 10
0.0
 20
0.0
 30
0.0
 70
   128
 71
     3
 72
     4
 73
     9
 74
     8
  0
VERTEX
  5
F2
330
E4
100
AcDbEntity
  8
BASE
100
AcDbFaceRecord
 10
0.0
 20
0.0
 30
0.0
 70
   128
 71
     4
 72
     5
 73
    10
 74
     9
  0
SEQEND
  5
F3
330
E4
100
AcDbEntity
  8
BASE
  0
POLYLINE
  5
F4
330
1F
100
AcDbEntity
  8
BASE
100
AcDbPolyFaceMesh
 66
     1
 10
0.0
 20
0.0
 30
0.0
 70
    64
 71
    30
 72
    20
  0
VERTEX
  5
F5
330
F4
100
AcDbEntity
  8
BASE
100
AcDbVertex
100
AcDbPolyFaceMeshVertex
 10
31.51524925231934
 20
-27.50864028930664
 30
45.38037490844727
 70
   192
  0
VERTEX
  5
F6
330
F4
100
AcDbEntity
  8
BASE
100
AcDbVertex
100
AcDbPolyFaceMeshVertex
 10
31.69678688049316
 20
-27.39487648010254
 30
43.90400314331055
 70
   192
  0
VERTEX
  5
F7
330
F4
100
AcDbEntity
  8
BASE
100
AcDbVertex
100
AcDbPolyFaceMeshVertex
 10
31.99954795837402
 20
-27.20514297485352
 30
42.45558929443359
 70
   192
  0
VERTEX
  5
F8
330
F4
100
AcDbEntity
  8
BASE
100
AcDbVertex
100
AcDbPolyFaceMeshVertex
 10
32.4206428527832
 20
-26.94124984741211
 30
41.0489616394043
 70
   192
  0
VERTEX
  5
F9
330
F4
100
AcDbEntity
  8
BASE
100
AcDbVertex
100
AcDbPolyFaceMeshVertex
 10
32.95604705810547
 20
-26.6057186126709
 30
39.69754791259766
 70
   192
  0
VERTEX
  5
FA
330
F4
100
AcDbEntity
  8
BASE
100
AcDbVertex
100
AcDbPolyFaceMeshVertex
 10
33.60065841674805
 20
-26.20175552368164
 30
38.41424942016602
 70
   192
  0
VERTEX
  5
FB
330
F4
100
AcDbEntity
  8
BASE
100
AcDbVertex
100
AcDbPolyFaceMeshVertex
 10
32.20707321166992
 20
-27.38140487670898
 30
45.38037490844727
 70
   192
  0
VERTEX
  5
FC
330
F4
100
AcDbEntity
  8
BASE
100
AcDbVertex
100
AcDbPolyFaceMeshVertex
 10
32.36241912841797
 20
-27.28485488891602
 30
43.9874267578125
 70
   192
  0
VERTEX
  5
FD
330
F4
100
AcDbEntity
  8
BASE
100
AcDbVertex
100
AcDbPolyFaceMeshVertex
 10
32.63898468017578
 20
-27.11232948303223
 30
42.62244415283203
 70
   192
  0
VERTEX
  5
FE
330
F4
100
AcDbEntity
  8
BASE
100
AcDbVertex
100
AcDbPolyFaceMeshVertex
 10
33.03389358520508
 20
-26.86565017700195
 30
41.29925155639648
 70
   192
  0
VERTEX
  5
FF
330
F4
100
AcDbEntity
  8
BASE
100
AcDbVertex
100
AcDbPolyFaceMeshVertex
 10
33.54311752319336
 20
-26.54732704162598
 30
40.03127288818359
 70
   192
  0
VERTEX
  5
100
330
F4
100
AcDbEntity
  8
BASE
100
AcDbVertex
100
AcDbPolyFaceMeshVertex
 10
34.16155242919922
 20
-26.16056442260742
 30
38.83140563964844
 70
   192
  0
VERTEX
  5
101
330
F4
100
AcDbEntity
  8
BASE
100
AcDbVertex
100
AcDbPolyFaceMeshVertex
 10
32.7690315246582
 20
-27.7846794128418
 30
45.38037490844727
 70
   192
  0
VERTEX
  5
102
330
F4
100
AcDbEntity
  8
BASE
100
AcDbVertex
100
AcDbPolyFaceMeshVertex
 10
32.91463851928711
 20
-27.69343948364258
 30
44.02210998535156
 70
   192
  0
VERTEX
  5
103
330
F4
100
AcDbEntity
  8
BASE
100
AcDbVertex
100
AcDbPolyFaceMeshVertex
 10
33.18147659301758
 20
-27.52622413635254
 30
42.69182205200195
 70
   192
  0
VERTEX
  5
104
330
F4
100
AcDbEntity
  8
BASE
100
AcDbVertex
100
AcDbPolyFaceMeshVertex
 10
33.566650390625
 20
-27.28484725952148
 30
41.40332794189453
 70
   192
  0
VERTEX
  5
105
330
F4
100
AcDbEntity
  8
BASE
100
AcDbVertex
100
AcDbPolyFaceMeshVertex
 10
34.0661506652832
 20
-26.97182846069336
 30
40.17004013061523
 70
   192
  0
VERTEX
  5
106
330
F4
100
AcDbEntity
  8
BASE
100
AcDbVertex
100
AcDbPolyFaceMeshVertex
 10
34.67486190795898
 20
-26.59036827087402
 30
39.00486755371094
 70
   192
  0
VERTEX
  5
107
330
F4
100
AcDbEntity
  8
BASE
100
AcDbVertex
100
AcDbPolyFaceMeshVertex
 10
32.87346649169922
 20
-28.46843338012695
 30
45.38037490844727
 70
   192
  0
VERTEX
  5
108
330
F4
100
AcDbEntity
  8
BASE
100
AcDbVertex
100
AcDbPolyFaceMeshVertex
 10
33.02857971191406
 20
-28.37041091918945
 30
43.98580169677734
 70
   192
  0
VERTEX
  5
109
330
F4
100
AcDbEntity
  8
BASE
100
AcDbVertex
100
AcDbPolyFaceMeshVertex
 10
33.3049201965332
 20
-28.1964111328125
 30
42.61921691894531
 70
   192
  0
VERTEX
  5
10A
330
F4
100
AcDbEntity
  8
BASE
100
AcDbVertex
100
AcDbPolyFaceMeshVertex
 10
33.69960021972656
 20
-27.94825172424316
 30
41.29442596435547
 70
   192
  0
VERTEX
  5
10B
330
F4
100
AcDbEntity
  8
BASE
100
AcDbVertex
100
AcDbPolyFaceMeshVertex
 10
34.20861053466797
 20
-27.62844467163086
 30
40.02484893798828
 70
   192
  0
VERTEX
  5
10C
330
F4
100
AcDbEntity
  8
BASE
100
AcDbVertex
100
AcDbPolyFaceMeshVertex
 10
34.82683563232422
 20
-27.24019432067871
 30
38.82337188720703
 70
   192
  0
VERTEX
  5
10D
330
F4
100
AcDbEntity
  8
BASE
100
AcDbVertex
100
AcDbPolyFaceMeshVertex
 10
32.44622039794922
 20
-29.02724075317383
 30
45.38037490844727
 70
   192
  0
VERTEX
  5
10E
330
F4
100
AcDbEntity
  8
BASE
100
AcDbVertex
100
AcDbPolyFaceMeshVertex
 10
32.62842559814453
 20
-28.91305541992188
 30
43.90171051025391
 70
   192
  0
VERTEX
  5
10F
330
F4
100
AcDbEntity
  8
BASE
100
AcDbVertex
100
AcDbPolyFaceMeshVertex
 10
32.93186187744141
 20
-28.7228946685791
 30
42.45104217529297
 70
   192
  0
VERTEX
  5
110
330
F4
100
AcDbEntity
  8
BASE
100
AcDbVertex
100
AcDbPolyFaceMeshVertex
 10
33.3536491394043
 20
-28.45856857299805
 30
41.04217910766602
 70
   192
  0
VERTEX
  5
111
330
F4
100
AcDbEntity
  8
BASE
100
AcDbVertex
100
AcDbPolyFaceMeshVertex
 10
33.88976287841797
 20
-28.12259864807129
 30
39.68852615356445
 70
   192
  0
VERTEX
  5
112
330
F4
100
AcDbEntity
  8
BASE
100
AcDbVertex
100
AcDbPolyFaceMeshVertex
 10
34.53510284423828
 20
-27.71817588806152
 30
38.40296936035156
 70
   192
  0
VERTEX
  5
113
330
F4
100
AcDbEntity
  8
BASE
100
AcDbFaceRecord
 10
0.0
 20
0.0
 30
0.0
 70
   128
 71
     1
 72
     2
 73
     8
 74
     7
  0
VERTEX
  5
114
330
F4
100
AcDbEntity
  8
BASE
100
AcDbFaceRecord
 10
0.0
 20
0.0
 30
0.0
 70
   128
 71
     2
 72
     3
 73
     9
 74
     8
  0
VERTEX
  5
115
330
F4
100
AcDbEntity
  8
BASE
100
AcDbFaceRecord
 10
0.0
 20
0.0
 30
0.0
 70
   128
 71
     3
 72
     4
 73
    10
 74
     9
  0
VERTEX
  5
116
330
F4
100
AcDbEntity
  8
BASE
100
AcDbFaceRecord
 10
0.0
 20
0.0
 30
0.0
 70
   128
 71
     4
 72
     5
 73
    11
 74
    10
  0
VERTEX
  5
117
330
F4
100
AcDbEntity
  8
BASE
100
AcDbFaceRecord
 10
0.0
 20
0.0
 30
0.0
 70
   128
 71
     5
 72
     6
 73
    12
 74
    11
  0
VERTEX
  5
118
330
F4
100
AcDbEntity
  8
BASE
100
AcDbFaceRecord
 10
0.0
 20
0.0
 30
0.0
 70
   128
 71
     7
 72
     8
 73
    14
 74
    13
  0
VERTEX
  5
119
330
F4
100
AcDbEntity
  8
BASE
100
AcDbFaceRecord
 10
0.0
 20
0.0
 30
0.0
 70
   128
 71
     8
 72
     9
 73
    15
 74
    14
  0
VERTEX
  5
11A
330
F4
100
AcDbEntity
  8
BASE
100
AcDbFaceRecord
 10
0.0
 20
0.0
 30
0.0
 70
   128
 71
     9
 72
    10
 73
    16
 74
    15
  0
VERTEX
  5
11B
330
F4
100
AcDbEntity
  8
BASE
100
AcDbFaceRecord
 10
0.0
 20
0.0
 30
0.0
 70
   128
 71
    10
 72
    11
 73
    17
 74
    16
  0
VERTEX
  5
11C
330
F4
100
AcDbEntity
  8
BASE
100
AcDbFaceRecord
 10
0.0
 20
0.0
 30
0.0
 70
   128
 71
    11
 72
    12
 73
    18
 74
    17
  0
VERTEX
  5
11D
330
F4
100
AcDbEntity
  8
BASE
100
AcDbFaceRecord
 10
0.0
 20
0.0
 30
0.0
 70
   128
 71
    13
 72
    14
 73
    20
 74
    19
  0
VERTEX
  5
11E
330
F4
100
AcDbEntity
  8
BASE
100
AcDbFaceRecord
 10
0.0
 20
0.0
 30
0.0
 70
   128
 71
    14
 72
    15
 73
    21
 74
    20
  0
VERTEX
  5
11F
330
F4
100
AcDbEntity
  8
BASE
100
AcDbFaceRecord
 10
0.0
 20
0.0
 30
0.0
 70
   128
 71
    15
 72
    16
 73
    22
 74
    21
  0
VERTEX
  5
120
330
F4
100
AcDbEntity
  8
BASE
100
AcDbFaceRecord
 10
0.0
 20
0.0
 30
0.0
 70
   128
 71
    16
 72
    17
 73
    23
 74
    22
  0
VERTEX
  5
121
330
F4
100
AcDbEntity
  8
BASE
100
AcDbFaceRecord
 10
0.0
 20
0.0
 30
0.0
 70
   128
 71
    17
 72
    18
 73
    24
 74
    23
  0
VERTEX
  5
122
330
F4
100
AcDbEntity
  8
BASE
100
AcDbFaceRecord
 10
0.0
 20
0.0
 30
0.0
 70
   128
 71
    19
 72
    20
 73
    26
 74
    25
  0
VERTEX
  5
123
330
F4
100
AcDbEntity
  8
BASE
100
AcDbFaceRecord
 10
0.0
 20
0.0
 30
0.0
 70
   128
 71
    20
 72
    21
 73
    27
 74
    26
  0
VERTEX
  5
124
330
F4
100
AcDbEntity
  8
BASE
100
AcDbFaceRecord
 10
0.0
 20
0.0
 30
0.0
 70
   128
 71
    21
 72
    22
 73
    28
 74
    27
  0
VERTEX
  5
125
330
F4
100
AcDbEntity
  8
BASE
100
AcDbFaceRecord
 10
0.0
 20
0.0
 30
0.0
 70
   128
 71
    22
 72
    23
 73
    29
 74
    28
  0
VERTEX
  5
126
330
F4
100
AcDbEntity
  8
BASE
100
AcDbFaceRecord
 10
0.0
 20
0.0
 30
0.0
 70
   128
 71
    23
 72
    24
 73
    30
 74
    29
  0
SEQEND
  5
127
330
F4
100
AcDbEntity
  8
BASE
  0
POLYLINE
  5
128
330
1F
100
AcDbEntity
  8
BASE
100
AcDbPolyFaceMesh
 66
     1
 10
0.0
 20
0.0
 30
0.0
 70
    64
 71
    10
 72
     4
  0
VERTEX
  5
129
330
128
100
AcDbEntity
  8
BASE
100
AcDbVertex
100
AcDbPolyFaceMeshVertex
 10
33.60065841674805
 20
-26.20175552368164
 30
38.41424942016602
 70
   192
  0
VERTEX
  5
12A
330
128
100
AcDbEntity
  8
BASE
100
AcDbVertex
100
AcDbPolyFaceMeshVertex
 10
34.16155242919922
 20
-26.16056442260742
 30
38.83140563964844
 70
   192
  0
VERTEX
  5
12B
330
128
100
AcDbEntity
  8
BASE
100
AcDbVertex
100
AcDbPolyFaceMeshVertex
 10
34.67486190795898
 20
-26.59036827087402
 30
39.00486755371094
 70
   192
  0
VERTEX
  5
12C
330
128
100
AcDbEntity
  8
BASE
100
AcDbVertex
100
AcDbPolyFaceMeshVertex
 10
34.82683563232422
 20
-27.24019432067871
 30
38.82337188720703
 70
   192
  0
VERTEX
  5
12D
330
128
100
AcDbEntity
  8
BASE
100
AcDbVertex
100
AcDbPolyFaceMeshVertex
 10
34.53510284423828
 20
-27.71817588806152
 30
38.40296936035156
 70
   192
  0
VERTEX
  5
12E
330
128
100
AcDbEntity
  8
BASE
100
AcDbVertex
100
AcDbPolyFaceMeshVertex
 10
57.05219268798828
 20
-11.50515079498291
 30
0.0146171180531383
 70
   192
  0
VERTEX
  5
12F
330
128
100
AcDbEntity
  8
BASE
100
AcDbVertex
100
AcDbPolyFaceMeshVertex
 10
57.74399566650391
 20
-11.37792873382568
 30
0.0203637480735779
 70
   192
  0
VERTEX
  5
130
330
128
100
AcDbEntity
  8
BASE
100
AcDbVertex
100
AcDbPolyFaceMeshVertex
 10
58.30594635009766
 20
-11.78120994567871
 30
0.0226669199764729
 70
   192
  0
VERTEX
  5
131
330
128
100
AcDbEntity
  8
BASE
100
AcDbVertex
100
AcDbPolyFaceMeshVertex
 10
58.4103889465332
 20
-12.46495628356934
 30
0.0202533360570669
 70
   192
  0
VERTEX
  5
132
330
128
100
AcDbEntity
  8
BASE
100
AcDbVertex
100
AcDbPolyFaceMeshVertex
 10
57.98316192626953
 20
-13.02375030517578
 30
0.0144628714770079
 70
   192
  0
VERTEX
  5
133
330
128
100
AcDbEntity
  8
BASE
100
AcDbFaceRecord
 10
0.0
 20
0.0
 30
0.0
 70
   128
 71
     1
 72
     2
 73
     7
 74
     6
  0
VERTEX
  5
134
330
128
100
AcDbEntity
  8
BASE
100
AcDbFaceRecord
 10
0.0
 20
0.0
 30
0.0
 70
   128
 71
     2
 72
     3
 73
     8
 74
     7
  0
VERTEX
  5
135
330
128
100
AcDbEntity
  8
BASE
100
AcDbFaceRecord
 10
0.0
 20
0.0
 30
0.0
 70
   128
 71
     3
 72
     4
 73
     9
 74
     8
  0
VERTEX
  5
136
330
128
100
AcDbEntity
  8
BASE
100
AcDbFaceRecord
 10
0.0
 20
0.0
 30
0.0
 70
   128
 71
     4
 72
     5
 73
    10
 74
     9
  0
SEQEND
  5
137
330
128
100
AcDbEntity
  8
BASE
  0
POLYLINE
  5
139
330
1F
100
AcDbEntity
  8
CUPULA
100
AcDbPolyFaceMesh
 66
     1
 10
0.0
 20
0.0
 30
0.0
 70
    64
 71
    24
 72
    12
  0
VERTEX
  5
13A
330
139
100
AcDbEntity
  8
CUPULA
100
AcDbVertex
100
AcDbPolyFaceMeshVertex
 10
60.0
 20
-30.0
 30
126.0
 70
   192
  0
VERTEX
  5
13B
330
139
100
AcDbEntity
  8
CUPULA
100
AcDbVertex
100
AcDbPolyFaceMeshVertex
 10
55.98076248168945
 20
-15.0
 30
126.0
 70
   192
  0
VERTEX
  5
13C
330
139
100
AcDbEntity
  8
CUPULA
100
AcDbVertex
100
AcDbPolyFaceMeshVertex
 10
45.0
 20
-4.019237995147705
 30
126.0
 70
   192
  0
VERTEX
  5
13D
330
139
100
AcDbEntity
  8
CUPULA
100
AcDbVertex
100
AcDbPolyFaceMeshVertex
 10
30.0
 20
0.0
 30
126.0
 70
   192
  0
VERTEX
  5
13E
330
139
100
AcDbEntity
  8
CUPULA
100
AcDbVertex
100
AcDbPolyFaceMeshVertex
 10
15.0
 20
-4.019237995147705
 30
126.0
 70
   192
  0
VERTEX
  5
13F
330
139
100
AcDbEntity
  8
CUPULA
100
AcDbVertex
100
AcDbPolyFaceMeshVertex
 10
4.019237995147705
 20
-15.0
 30
126.0
 70
   192
  0
VERTEX
  5
140
330
139
100
AcDbEntity
  8
CUPULA
100
AcDbVertex
100
AcDbPolyFaceMeshVertex
 10
0.0
 20
-30.0
 30
126.0
 70
   192
  0
VERTEX
  5
141
330
139
100
AcDbEntity
  8
CUPULA
100
AcDbVertex
100
AcDbPolyFaceMeshVertex
 10
4.019237995147705
 20
-45.0
 30
126.0
 70
   192
  0
VERTEX
  5
142
330
139
100
AcDbEntity
  8
CUPULA
100
AcDbVertex
100
AcDbPolyFaceMeshVertex
 10
15.0
 20
-55.98076248168945
 30
126.0
 70
   192
  0
VERTEX
  5
143
330
139
100
AcDbEntity
  8
CUPULA
100
AcDbVertex
100
AcDbPolyFaceMeshVertex
 10
30.0
 20
-60.0
 30
126.0
 70
   192
  0
VERTEX
  5
144
330
139
100
AcDbEntity
  8
CUPULA
100
AcDbVertex
100
AcDbPolyFaceMeshVertex
 10
45.0
 20
-55.98076248168945
 30
126.0
 70
   192
  0
VERTEX
  5
145
330
139
100
AcDbEntity
  8
CUPULA
100
AcDbVertex
100
AcDbPolyFaceMeshVertex
 10
55.98076248168945
 20
-45.0
 30
126.0
 70
   192
  0
VERTEX
  5
146
330
139
100
AcDbEntity
  8
CUPULA
100
AcDbVertex
100
AcDbPolyFaceMeshVertex
 10
59.40000152587891
 20
-30.0
 30
126.0
 70
   192
  0
VERTEX
  5
147
330
139
100
AcDbEntity
  8
CUPULA
100
AcDbVertex
100
AcDbPolyFaceMeshVertex
 10
55.46114349365234
 20
-15.30000019073486
 30
126.0
 70
   192
  0
VERTEX
  5
148
330
139
100
AcDbEntity
  8
CUPULA
100
AcDbVertex
100
AcDbPolyFaceMeshVertex
 10
44.70000076293945
 20
-4.538853168487549
 30
126.0
 70
   192
  0
VERTEX
  5
149
330
139
100
AcDbEntity
  8
CUPULA
100
AcDbVertex
100
AcDbPolyFaceMeshVertex
 10
30.0
 20
-0.6000000238418579
 30
126.0
 70
   192
  0
VERTEX
  5
14A
330
139
100
AcDbEntity
  8
CUPULA
100
AcDbVertex
100
AcDbPolyFaceMeshVertex
 10
15.30000019073486
 20
-4.538853168487549
 30
126.0
 70
   192
  0
VERTEX
  5
14B
330
139
100
AcDbEntity
  8
CUPULA
100
AcDbVertex
100
AcDbPolyFaceMeshVertex
 10
4.538853168487549
 20
-15.30000019073486
 30
126.0
 70
   192
  0
VERTEX
  5
14C
330
139
100
AcDbEntity
  8
CUPULA
100
AcDbVertex
100
AcDbPolyFaceMeshVertex
 10
0.6000000238418579
 20
-30.0
 30
126.0
 70
   192
  0
VERTEX
  5
14D
330
139
100
AcDbEntity
  8
CUPULA
100
AcDbVertex
100
AcDbPolyFaceMeshVertex
 10
4.538853168487549
 20
-44.70000076293945
 30
126.0
 70
   192
  0
VERTEX
  5
14E
330
139
100
AcDbEntity
  8
CUPULA
100
AcDbVertex
100
AcDbPolyFaceMeshVertex
 10
15.30000019073486
 20
-55.46114349365234
 30
126.0
 70
   192
  0
VERTEX
  5
14F
330
139
100
AcDbEntity
  8
CUPULA
100
AcDbVertex
100
AcDbPolyFaceMeshVertex
 10
30.0
 20
-59.40000152587891
 30
126.0
 70
   192
  0
VERTEX
  5
150
330
139
100
AcDbEntity
  8
CUPULA
100
AcDbVertex
100
AcDbPolyFaceMeshVertex
 10
44.70000076293945
 20
-55.46114349365234
 30
126.0
 70
   192
  0
VERTEX
  5
151
330
139
100
AcDbEntity
  8
CUPULA
100
AcDbVertex
100
AcDbPolyFaceMeshVertex
 10
55.46114349365234
 20
-44.70000076293945
 30
126.0
 70
   192
  0
VERTEX
  5
152
330
139
100
AcDbEntity
  8
CUPULA
100
AcDbFaceRecord
 10
0.0
 20
0.0
 30
0.0
 70
   128
 71
     1
 72
     2
 73
    14
 74
    13
  0
VERTEX
  5
153
330
139
100
AcDbEntity
  8
CUPULA
100
AcDbFaceRecord
 10
0.0
 20
0.0
 30
0.0
 70
   128
 71
     2
 72
     3
 73
    15
 74
    14
  0
VERTEX
  5
154
330
139
100
AcDbEntity
  8
CUPULA
100
AcDbFaceRecord
 10
0.0
 20
0.0
 30
0.0
 70
   128
 71
     3
 72
     4
 73
    16
 74
    15
  0
VERTEX
  5
155
330
139
100
AcDbEntity
  8
CUPULA
100
AcDbFaceRecord
 10
0.0
 20
0.0
 30
0.0
 70
   128
 71
     4
 72
     5
 73
    17
 74
    16
  0
VERTEX
  5
156
330
139
100
AcDbEntity
  8
CUPULA
100
AcDbFaceRecord
 10
0.0
 20
0.0
 30
0.0
 70
   128
 71
     5
 72
     6
 73
    18
 74
    17
  0
VERTEX
  5
157
330
139
100
AcDbEntity
  8
CUPULA
100
AcDbFaceRecord
 10
0.0
 20
0.0
 30
0.0
 70
   128
 71
     6
 72
     7
 73
    19
 74
    18
  0
VERTEX
  5
158
330
139
100
AcDbEntity
  8
CUPULA
100
AcDbFaceRecord
 10
0.0
 20
0.0
 30
0.0
 70
   128
 71
     7
 72
     8
 73
    20
 74
    19
  0
VERTEX
  5
159
330
139
100
AcDbEntity
  8
CUPULA
100
AcDbFaceRecord
 10
0.0
 20
0.0
 30
0.0
 70
   128
 71
     8
 72
     9
 73
    21
 74
    20
  0
VERTEX
  5
15A
330
139
100
AcDbEntity
  8
CUPULA
100
AcDbFaceRecord
 10
0.0
 20
0.0
 30
0.0
 70
   128
 71
     9
 72
    10
 73
    22
 74
    21
  0
VERTEX
  5
15B
330
139
100
AcDbEntity
  8
CUPULA
100
AcDbFaceRecord
 10
0.0
 20
0.0
 30
0.0
 70
   128
 71
    10
 72
    11
 73
    23
 74
    22
  0
VERTEX
  5
15C
330
139
100
AcDbEntity
  8
CUPULA
100
AcDbFaceRecord
 10
0.0
 20
0.0
 30
0.0
 70
   128
 71
    11
 72
    12
 73
    24
 74
    23
  0
VERTEX
  5
15D
330
139
100
AcDbEntity
  8
CUPULA
100
AcDbFaceRecord
 10
0.0
 20
0.0
 30
0.0
 70
   128
 71
    12
 72
     1
 73
    13
 74
    24
  0
SEQEND
  5
15E
330
139
100
AcDbEntity
  8
CUPULA
  0
POLYLINE
  5
15F
330
1F
100
AcDbEntity
  8
CUPULA
100
AcDbPolyFaceMesh
 66
     1
 10
0.0
 20
0.0
 30
0.0
 70
    64
 71
    24
 72
    12
  0
VERTEX
  5
160
330
15F
100
AcDbEntity
  8
CUPULA
100
AcDbVertex
100
AcDbPolyFaceMeshVertex
 10
60.0
 20
-30.0
 30
170.0
 70
   192
  0
VERTEX
  5
161
330
15F
100
AcDbEntity
  8
CUPULA
100
AcDbVertex
100
AcDbPolyFaceMeshVertex
 10
55.98076248168945
 20
-15.0
 30
170.0
 70
   192
  0
VERTEX
  5
162
330
15F
100
AcDbEntity
  8
CUPULA
100
AcDbVertex
100
AcDbPolyFaceMeshVertex
 10
45.0
 20
-4.019237995147705
 30
170.0
 70
   192
  0
VERTEX
  5
163
330
15F
100
AcDbEntity
  8
CUPULA
100
AcDbVertex
100
AcDbPolyFaceMeshVertex
 10
30.0
 20
0.0
 30
170.0
 70
   192
  0
VERTEX
  5
164
330
15F
100
AcDbEntity
  8
CUPULA
100
AcDbVertex
100
AcDbPolyFaceMeshVertex
 10
15.0
 20
-4.019237995147705
 30
170.0
 70
   192
  0
VERTEX
  5
165
330
15F
100
AcDbEntity
  8
CUPULA
100
AcDbVertex
100
AcDbPolyFaceMeshVertex
 10
4.019237995147705
 20
-15.0
 30
170.0
 70
   192
  0
VERTEX
  5
166
330
15F
100
AcDbEntity
  8
CUPULA
100
AcDbVertex
100
AcDbPolyFaceMeshVertex
 10
0.0
 20
-30.0
 30
170.0
 70
   192
  0
VERTEX
  5
167
330
15F
100
AcDbEntity
  8
CUPULA
100
AcDbVertex
100
AcDbPolyFaceMeshVertex
 10
4.019237995147705
 20
-45.0
 30
170.0
 70
   192
  0
VERTEX
  5
168
330
15F
100
AcDbEntity
  8
CUPULA
100
AcDbVertex
100
AcDbPolyFaceMeshVertex
 10
15.0
 20
-55.98076248168945
 30
170.0
 70
   192
  0
VERTEX
  5
169
330
15F
100
AcDbEntity
  8
CUPULA
100
AcDbVertex
100
AcDbPolyFaceMeshVertex
 10
30.0
 20
-60.0
 30
170.0
 70
   192
  0
VERTEX
  5
16A
330
15F
100
AcDbEntity
  8
CUPULA
100
AcDbVertex
100
AcDbPolyFaceMeshVertex
 10
45.0
 20
-55.98076248168945
 30
170.0
 70
   192
  0
VERTEX
  5
16B
330
15F
100
AcDbEntity
  8
CUPULA
100
AcDbVertex
100
AcDbPolyFaceMeshVertex
 10
55.98076248168945
 20
-45.0
 30
170.0
 70
   192
  0
VERTEX
  5
16C
330
15F
100
AcDbEntity
  8
CUPULA
100
AcDbVertex
100
AcDbPolyFaceMeshVertex
 10
59.40000152587891
 20
-30.0
 30
170.0
 70
   192
  0
VERTEX
  5
16D
330
15F
100
AcDbEntity
  8
CUPULA
100
AcDbVertex
100
AcDbPolyFaceMeshVertex
 10
55.46114349365234
 20
-15.30000019073486
 30
170.0
 70
   192
  0
VERTEX
  5
16E
330
15F
100
AcDbEntity
  8
CUPULA
100
AcDbVertex
100
AcDbPolyFaceMeshVertex
 10
44.70000076293945
 20
-4.538853168487549
 30
170.0
 70
   192
  0
VERTEX
  5
16F
330
15F
100
AcDbEntity
  8
CUPULA
100
AcDbVertex
100
AcDbPolyFaceMeshVertex
 10
30.0
 20
-0.6000000238418579
 30
170.0
 70
   192
  0
VERTEX
  5
170
330
15F
100
AcDbEntity
  8
CUPULA
100
AcDbVertex
100
AcDbPolyFaceMeshVertex
 10
15.30000019073486
 20
-4.538853168487549
 30
170.0
 70
   192
  0
VERTEX
  5
171
330
15F
100
AcDbEntity
  8
CUPULA
100
AcDbVertex
100
AcDbPolyFaceMeshVertex
 10
4.538853168487549
 20
-15.30000019073486
 30
170.0
 70
   192
  0
VERTEX
  5
172
330
15F
100
AcDbEntity
  8
CUPULA
100
AcDbVertex
100
AcDbPolyFaceMeshVertex
 10
0.6000000238418579
 20
-30.0
 30
170.0
 70
   192
  0
VERTEX
  5
173
330
15F
100
AcDbEntity
  8
CUPULA
100
AcDbVertex
100
AcDbPolyFaceMeshVertex
 10
4.538853168487549
 20
-44.70000076293945
 30
170.0
 70
   192
  0
VERTEX
  5
174
330
15F
100
AcDbEntity
  8
CUPULA
100
AcDbVertex
100
AcDbPolyFaceMeshVertex
 10
15.30000019073486
 20
-55.46114349365234
 30
170.0
 70
   192
  0
VERTEX
  5
175
330
15F
100
AcDbEntity
  8
CUPULA
100
AcDbVertex
100
AcDbPolyFaceMeshVertex
 10
30.0
 20
-59.40000152587891
 30
170.0
 70
   192
  0
VERTEX
  5
176
330
15F
100
AcDbEntity
  8
CUPULA
100
AcDbVertex
100
AcDbPolyFaceMeshVertex
 10
44.70000076293945
 20
-55.46114349365234
 30
170.0
 70
   192
  0
VERTEX
  5
177
330
15F
100
AcDbEntity
  8
CUPULA
100
AcDbVertex
100
AcDbPolyFaceMeshVertex
 10
55.46114349365234
 20
-44.70000076293945
 30
170.0
 70
   192
  0
VERTEX
  5
178
330
15F
100
AcDbEntity
  8
CUPULA
100
AcDbFaceRecord
 10
0.0
 20
0.0
 30
0.0
 70
   128
 71
     1
 72
     2
 73
    14
 74
    13
  0
VERTEX
  5
179
330
15F
100
AcDbEntity
  8
CUPULA
100
AcDbFaceRecord
 10
0.0
 20
0.0
 30
0.0
 70
   128
 71
     2
 72
     3
 73
    15
 74
    14
  0
VERTEX
  5
17A
330
15F
100
AcDbEntity
  8
CUPULA
100
AcDbFaceRecord
 10
0.0
 20
0.0
 30
0.0
 70
   128
 71
     3
 72
     4
 73
    16
 74
    15
  0
VERTEX
  5
17B
330
15F
100
AcDbEntity
  8
CUPULA
100
AcDbFaceRecord
 10
0.0
 20
0.0
 30
0.0
 70
   128
 71
     4
 72
     5
 73
    17
 74
    16
  0
VERTEX
  5
17C
330
15F
100
AcDbEntity
  8
CUPULA
100
AcDbFaceRecord
 10
0.0
 20
0.0
 30
0.0
 70
   128
 71
     5
 72
     6
 73
    18
 74
    17
  0
VERTEX
  5
17D
330
15F
100
AcDbEntity
  8
CUPULA
100
AcDbFaceRecord
 10
0.0
 20
0.0
 30
0.0
 70
   128
 71
     6
 72
     7
 73
    19
 74
    18
  0
VERTEX
  5
17E
330
15F
100
AcDbEntity
  8
CUPULA
100
AcDbFaceRecord
 10
0.0
 20
0.0
 30
0.0
 70
   128
 71
     7
 72
     8
 73
    20
 74
    19
  0
VERTEX
  5
17F
330
15F
100
AcDbEntity
  8
CUPULA
100
AcDbFaceRecord
 10
0.0
 20
0.0
 30
0.0
 70
   128
 71
     8
 72
     9
 73
    21
 74
    20
  0
VERTEX
  5
180
330
15F
100
AcDbEntity
  8
CUPULA
100
AcDbFaceRecord
 10
0.0
 20
0.0
 30
0.0
 70
   128
 71
     9
 72
    10
 73
    22
 74
    21
  0
VERTEX
  5
181
330
15F
100
AcDbEntity
  8
CUPULA
100
AcDbFaceRecord
 10
0.0
 20
0.0
 30
0.0
 70
   128
 71
    10
 72
    11
 73
    23
 74
    22
  0
VERTEX
  5
182
330
15F
100
AcDbEntity
  8
CUPULA
100
AcDbFaceRecord
 10
0.0
 20
0.0
 30
0.0
 70
   128
 71
    11
 72
    12
 73
    24
 74
    23
  0
VERTEX
  5
183
330
15F
100
AcDbEntity
  8
CUPULA
100
AcDbFaceRecord
 10
0.0
 20
0.0
 30
0.0
 70
   128
 71
    12
 72
     1
 73
    13
 74
    24
  0
SEQEND
  5
184
330
15F
100
AcDbEntity
  8
CUPULA
  0
POLYLINE
  5
185
330
1F
100
AcDbEntity
  8
CUPULA
100
AcDbPolyFaceMesh
 66
     1
 10
0.0
 20
0.0
 30
0.0
 70
    64
 71
    24
 72
    12
  0
VERTEX
  5
186
330
185
100
AcDbEntity
  8
CUPULA
100
AcDbVertex
100
AcDbPolyFaceMeshVertex
 10
60.0
 20
-30.0
 30
170.0
 70
   192
  0
VERTEX
  5
187
330
185
100
AcDbEntity
  8
CUPULA
100
AcDbVertex
100
AcDbPolyFaceMeshVertex
 10
55.98076248168945
 20
-15.0
 30
170.0
 70
   192
  0
VERTEX
  5
188
330
185
100
AcDbEntity
  8
CUPULA
100
AcDbVertex
100
AcDbPolyFaceMeshVertex
 10
45.0
 20
-4.019237995147705
 30
170.0
 70
   192
  0
VERTEX
  5
189
330
185
100
AcDbEntity
  8
CUPULA
100
AcDbVertex
100
AcDbPolyFaceMeshVertex
 10
30.0
 20
0.0
 30
170.0
 70
   192
  0
VERTEX
  5
18A
330
185
100
AcDbEntity
  8
CUPULA
100
AcDbVertex
100
AcDbPolyFaceMeshVertex
 10
15.0
 20
-4.019237995147705
 30
170.0
 70
   192
  0
VERTEX
  5
18B
330
185
100
AcDbEntity
  8
CUPULA
100
AcDbVertex
100
AcDbPolyFaceMeshVertex
 10
4.019237995147705
 20
-15.0
 30
170.0
 70
   192
  0
VERTEX
  5
18C
330
185
100
AcDbEntity
  8
CUPULA
100
AcDbVertex
100
AcDbPolyFaceMeshVertex
 10
0.0
 20
-30.0
 30
170.0
 70
   192
  0
VERTEX
  5
18D
330
185
100
AcDbEntity
  8
CUPULA
100
AcDbVertex
100
AcDbPolyFaceMeshVertex
 10
4.019237995147705
 20
-45.0
 30
170.0
 70
   192
  0
VERTEX
  5
18E
330
185
100
AcDbEntity
  8
CUPULA
100
AcDbVertex
100
AcDbPolyFaceMeshVertex
 10
15.0
 20
-55.98076248168945
 30
170.0
 70
   192
  0
VERTEX
  5
18F
330
185
100
AcDbEntity
  8
CUPULA
100
AcDbVertex
100
AcDbPolyFaceMeshVertex
 10
30.0
 20
-60.0
 30
170.0
 70
   192
  0
VERTEX
  5
190
330
185
100
AcDbEntity
  8
CUPULA
100
AcDbVertex
100
AcDbPolyFaceMeshVertex
 10
45.0
 20
-55.98076248168945
 30
170.0
 70
   192
  0
VERTEX
  5
191
330
185
100
AcDbEntity
  8
CUPULA
100
AcDbVertex
100
AcDbPolyFaceMeshVertex
 10
55.98076248168945
 20
-45.0
 30
170.0
 70
   192
  0
VERTEX
  5
192
330
185
100
AcDbEntity
  8
CUPULA
100
AcDbVertex
100
AcDbPolyFaceMeshVertex
 10
60.0
 20
-30.0
 30
126.0
 70
   192
  0
VERTEX
  5
193
330
185
100
AcDbEntity
  8
CUPULA
100
AcDbVertex
100
AcDbPolyFaceMeshVertex
 10
55.98076248168945
 20
-15.0
 30
126.0
 70
   192
  0
VERTEX
  5
194
330
185
100
AcDbEntity
  8
CUPULA
100
AcDbVertex
100
AcDbPolyFaceMeshVertex
 10
45.0
 20
-4.019237995147705
 30
126.0
 70
   192
  0
VERTEX
  5
195
330
185
100
AcDbEntity
  8
CUPULA
100
AcDbVertex
100
AcDbPolyFaceMeshVertex
 10
30.0
 20
0.0
 30
126.0
 70
   192
  0
VERTEX
  5
196
330
185
100
AcDbEntity
  8
CUPULA
100
AcDbVertex
100
AcDbPolyFaceMeshVertex
 10
15.0
 20
-4.019237995147705
 30
126.0
 70
   192
  0
VERTEX
  5
197
330
185
100
AcDbEntity
  8
CUPULA
100
AcDbVertex
100
AcDbPolyFaceMeshVertex
 10
4.019237995147705
 20
-15.0
 30
126.0
 70
   192
  0
VERTEX
  5
198
330
185
100
AcDbEntity
  8
CUPULA
100
AcDbVertex
100
AcDbPolyFaceMeshVertex
 10
0.0
 20
-30.0
 30
126.0
 70
   192
  0
VERTEX
  5
199
330
185
100
AcDbEntity
  8
CUPULA
100
AcDbVertex
100
AcDbPolyFaceMeshVertex
 10
4.019237995147705
 20
-45.0
 30
126.0
 70
   192
  0
VERTEX
  5
19A
330
185
100
AcDbEntity
  8
CUPULA
100
AcDbVertex
100
AcDbPolyFaceMeshVertex
 10
15.0
 20
-55.98076248168945
 30
126.0
 70
   192
  0
VERTEX
  5
19B
330
185
100
AcDbEntity
  8
CUPULA
100
AcDbVertex
100
AcDbPolyFaceMeshVertex
 10
30.0
 20
-60.0
 30
126.0
 70
   192
  0
VERTEX
  5
19C
330
185
100
AcDbEntity
  8
CUPULA
100
AcDbVertex
100
AcDbPolyFaceMeshVertex
 10
45.0
 20
-55.98076248168945
 30
126.0
 70
   192
  0
VERTEX
  5
19D
330
185
100
AcDbEntity
  8
CUPULA
100
AcDbVertex
100
AcDbPolyFaceMeshVertex
 10
55.98076248168945
 20
-45.0
 30
126.0
 70
   192
  0
VERTEX
  5
19E
330
185
100
AcDbEntity
  8
CUPULA
100
AcDbFaceRecord
 10
0.0
 20
0.0
 30
0.0
 70
   128
 71
     1
 72
     2
 73
    14
 74
    13
  0
VERTEX
  5
19F
330
185
100
AcDbEntity
  8
CUPULA
100
AcDbFaceRecord
 10
0.0
 20
0.0
 30
0.0
 70
   128
 71
     2
 72
     3
 73
    15
 74
    14
  0
VERTEX
  5
1A0
330
185
100
AcDbEntity
  8
CUPULA
100
AcDbFaceRecord
 10
0.0
 20
0.0
 30
0.0
 70
   128
 71
     3
 72
     4
 73
    16
 74
    15
  0
VERTEX
  5
1A1
330
185
100
AcDbEntity
  8
CUPULA
100
AcDbFaceRecord
 10
0.0
 20
0.0
 30
0.0
 70
   128
 71
     4
 72
     5
 73
    17
 74
    16
  0
VERTEX
  5
1A2
330
185
100
AcDbEntity
  8
CUPULA
100
AcDbFaceRecord
 10
0.0
 20
0.0
 30
0.0
 70
   128
 71
     5
 72
     6
 73
    18
 74
    17
  0
VERTEX
  5
1A3
330
185
100
AcDbEntity
  8
CUPULA
100
AcDbFaceRecord
 10
0.0
 20
0.0
 30
0.0
 70
   128
 71
     6
 72
     7
 73
    19
 74
    18
  0
VERTEX
  5
1A4
330
185
100
AcDbEntity
  8
CUPULA
100
AcDbFaceRecord
 10
0.0
 20
0.0
 30
0.0
 70
   128
 71
     7
 72
     8
 73
    20
 74
    19
  0
VERTEX
  5
1A5
330
185
100
AcDbEntity
  8
CUPULA
100
AcDbFaceRecord
 10
0.0
 20
0.0
 30
0.0
 70
   128
 71
     8
 72
     9
 73
    21
 74
    20
  0
VERTEX
  5
1A6
330
185
100
AcDbEntity
  8
CUPULA
100
AcDbFaceRecord
 10
0.0
 20
0.0
 30
0.0
 70
   128
 71
     9
 72
    10
 73
    22
 74
    21
  0
VERTEX
  5
1A7
330
185
100
AcDbEntity
  8
CUPULA
100
AcDbFaceRecord
 10
0.0
 20
0.0
 30
0.0
 70
   128
 71
    10
 72
    11
 73
    23
 74
    22
  0
VERTEX
  5
1A8
330
185
100
AcDbEntity
  8
CUPULA
100
AcDbFaceRecord
 10
0.0
 20
0.0
 30
0.0
 70
   128
 71
    11
 72
    12
 73
    24
 74
    23
  0
VERTEX
  5
1A9
330
185
100
AcDbEntity
  8
CUPULA
100
AcDbFaceRecord
 10
0.0
 20
0.0
 30
0.0
 70
   128
 71
    12
 72
     1
 73
    13
 74
    24
  0
SEQEND
  5
1AA
330
185
100
AcDbEntity
  8
CUPULA
  0
POLYLINE
  5
1AB
330
1F
100
AcDbEntity
  8
BASE
100
AcDbPolyFaceMesh
 66
     1
 10
0.0
 20
0.0
 30
0.0
 70
    64
 71
   239
 72
    60
  0
VERTEX
  5
1AC
330
1AB
100
AcDbEntity
  8
BASE
100
AcDbVertex
100
AcDbPolyFaceMeshVertex
 10
29.09927749633789
 20
-30.01071548461914
 30
45.38037490844727
 70
   192
  0
VERTEX
  5
1AD
330
1AB
100
AcDbEntity
  8
BASE
100
AcDbVertex
100
AcDbPolyFaceMeshVertex
 10
29.09532737731934
 20
-31.88100242614746
 30
45.38037490844727
 70
   192
  0
VERTEX
  5
1AE
330
1AB
100
AcDbEntity
  8
BASE
100
AcDbVertex
100
AcDbPolyFaceMeshVertex
 10
29.09532737731934
 20
-31.88100242614746
 30
145.1072845458984
 70
   192
  0
VERTEX
  5
1AF
330
1AB
100
AcDbEntity
  8
BASE
100
AcDbVertex
100
AcDbPolyFaceMeshVertex
 10
29.09927749633789
 20
-30.01071548461914
 30
145.1072845458984
 70
   192
  0
VERTEX
  5
1B0
330
1AB
100
AcDbEntity
  8
BASE
100
AcDbVertex
100
AcDbPolyFaceMeshVertex
 10
30.87604904174805
 20
-30.01071548461914
 30
145.1072845458984
 70
   192
  0
VERTEX
  5
1B1
330
1AB
100
AcDbEntity
  8
BASE
100
AcDbVertex
100
AcDbPolyFaceMeshVertex
 10
30.87648963928223
 20
-31.86345481872559
 30
145.1072845458984
 70
   192
  0
VERTEX
  5
1B2
330
1AB
100
AcDbEntity
  8
BASE
100
AcDbVertex
100
AcDbPolyFaceMeshVertex
 10
30.87648963928223
 20
-31.86345481872559
 30
45.38037490844727
 70
   192
  0
VERTEX
  5
1B3
330
1AB
100
AcDbEntity
  8
BASE
100
AcDbVertex
100
AcDbPolyFaceMeshVertex
 10
30.87604904174805
 20
-30.01071548461914
 30
45.38037490844727
 70
   192
  0
VERTEX
  5
1B4
330
1AB
100
AcDbEntity
  8
BASE
100
AcDbVertex
100
AcDbPolyFaceMeshVertex
 10
29.99782943725586
 20
-28.47198104858398
 30
45.38037490844727
 70
   192
  0
VERTEX
  5
1B5
330
1AB
100
AcDbEntity
  8
BASE
100
AcDbVertex
100
AcDbPolyFaceMeshVertex
 10
31.60540771484375
 20
-27.53342056274414
 30
45.38037490844727
 70
   192
  0
VERTEX
  5
1B6
330
1AB
100
AcDbEntity
  8
BASE
100
AcDbVertex
100
AcDbPolyFaceMeshVertex
 10
31.60540771484375
 20
-27.53342056274414
 30
145.1072845458984
 70
   192
  0
VERTEX
  5
1B7
330
1AB
100
AcDbEntity
  8
BASE
100
AcDbVertex
100
AcDbPolyFaceMeshVertex
 10
29.99782943725586
 20
-28.47198104858398
 30
145.1072845458984
 70
   192
  0
VERTEX
  5
1B8
330
1AB
100
AcDbEntity
  8
BASE
100
AcDbVertex
100
AcDbPolyFaceMeshVertex
 10
30.87604904174805
 20
-30.01071548461914
 30
145.1072845458984
 70
   192
  0
VERTEX
  5
1B9
330
1AB
100
AcDbEntity
  8
BASE
100
AcDbVertex
100
AcDbPolyFaceMeshVertex
 10
32.48078918457031
 20
-29.0847225189209
 30
145.1072845458984
 70
   192
  0
VERTEX
  5
1BA
330
1AB
100
AcDbEntity
  8
BASE
100
AcDbVertex
100
AcDbPolyFaceMeshVertex
 10
32.48078918457031
 20
-29.0847225189209
 30
45.38037490844727
 70
   192
  0
VERTEX
  5
1BB
330
1AB
100
AcDbEntity
  8
BASE
100
AcDbVertex
100
AcDbPolyFaceMeshVertex
 10
30.87604904174805
 20
-30.01071548461914
 30
45.38037490844727
 70
   192
  0
VERTEX
  5
1BC
330
1AB
100
AcDbEntity
  8
BASE
100
AcDbVertex
100
AcDbPolyFaceMeshVertex
 10
29.99891662597656
 20
-28.47198104858398
 30
45.38037490844727
 70
   192
  0
VERTEX
  5
1BD
330
1AB
100
AcDbEntity
  8
BASE
100
AcDbVertex
100
AcDbPolyFaceMeshVertex
 10
28.39361000061035
 20
-27.53342056274414
 30
45.38037490844727
 70
   192
  0
VERTEX
  5
1BE
330
1AB
100
AcDbEntity
  8
BASE
100
AcDbVertex
100
AcDbPolyFaceMeshVertex
 10
28.39361000061035
 20
-27.53342056274414
 30
145.1072845458984
 70
   192
  0
VERTEX
  5
1BF
330
1AB
100
AcDbEntity
  8
BASE
100
AcDbVertex
100
AcDbPolyFaceMeshVertex
 10
29.99891662597656
 20
-28.47198104858398
 30
145.1072845458984
 70
   192
  0
VERTEX
  5
1C0
330
1AB
100
AcDbEntity
  8
BASE
100
AcDbVertex
100
AcDbPolyFaceMeshVertex
 10
29.09927749633789
 20
-30.01071548461914
 30
145.1072845458984
 70
   192
  0
VERTEX
  5
1C1
330
1AB
100
AcDbEntity
  8
BASE
100
AcDbVertex
100
AcDbPolyFaceMeshVertex
 10
27.51822471618652
 20
-29.0847225189209
 30
145.1072845458984
 70
   192
  0
VERTEX
  5
1C2
330
1AB
100
AcDbEntity
  8
BASE
100
AcDbVertex
100
AcDbPolyFaceMeshVertex
 10
27.51822471618652
 20
-29.0847225189209
 30
45.38037490844727
 70
   192
  0
VERTEX
  5
1C3
330
1AB
100
AcDbEntity
  8
BASE
100
AcDbVertex
100
AcDbPolyFaceMeshVertex
 10
29.09927749633789
 20
-30.01071548461914
 30
45.38037490844727
 70
   192
  0
VERTEX
  5
1C4
330
1AB
100
AcDbEntity
  8
BASE
100
AcDbVertex
100
AcDbPolyFaceMeshVertex
 10
29.99782943725586
 20
-28.47198104858398
 30
45.38037490844727
 70
   192
  0
VERTEX
  5
1C5
330
1AB
100
AcDbEntity
  8
BASE
100
AcDbVertex
100
AcDbPolyFaceMeshVertex
 10
29.09927749633789
 20
-30.01071548461914
 30
45.38037490844727
 70
   192
  0
VERTEX
  5
1C6
330
1AB
100
AcDbEntity
  8
BASE
100
AcDbVertex
100
AcDbPolyFaceMeshVertex
 10
30.87604904174805
 20
-30.01071548461914
 30
45.38037490844727
 70
   192
  0
VERTEX
  5
1C7
330
1AB
100
AcDbEntity
  8
BASE
100
AcDbVertex
100
AcDbPolyFaceMeshVertex
 10
30.87604904174805
 20
-30.01071548461914
 30
45.38037490844727
 70
   192
  0
VERTEX
  5
1C8
330
1AB
100
AcDbEntity
  8
BASE
100
AcDbVertex
100
AcDbPolyFaceMeshVertex
 10
30.87648963928223
 20
-31.86345481872559
 30
45.38037490844727
 70
   192
  0
VERTEX
  5
1C9
330
1AB
100
AcDbEntity
  8
BASE
100
AcDbVertex
100
AcDbPolyFaceMeshVertex
 10
29.09532737731934
 20
-31.88100242614746
 30
45.38037490844727
 70
   192
  0
VERTEX
  5
1CA
330
1AB
100
AcDbEntity
  8
BASE
100
AcDbVertex
100
AcDbPolyFaceMeshVertex
 10
29.09927749633789
 20
-30.01071548461914
 30
45.38037490844727
 70
   192
  0
VERTEX
  5
1CB
330
1AB
100
AcDbEntity
  8
BASE
100
AcDbVertex
100
AcDbPolyFaceMeshVertex
 10
29.98590660095215
 20
-31.87222862243652
 30
45.38037490844727
 70
   192
  0
VERTEX
  5
1CC
330
1AB
100
AcDbEntity
  8
BASE
100
AcDbVertex
100
AcDbPolyFaceMeshVertex
 10
29.99501609802246
 20
-32.79682159423828
 30
45.38037490844727
 70
   192
  0
VERTEX
  5
1CD
330
1AB
100
AcDbEntity
  8
BASE
100
AcDbVertex
100
AcDbPolyFaceMeshVertex
 10
30.63420104980469
 20
-32.51755142211914
 30
45.38037490844727
 70
   192
  0
VERTEX
  5
1CE
330
1AB
100
AcDbEntity
  8
BASE
100
AcDbVertex
100
AcDbPolyFaceMeshVertex
 10
30.87648963928223
 20
-31.86345481872559
 30
45.38037490844727
 70
   192
  0
VERTEX
  5
1CF
330
1AB
100
AcDbEntity
  8
BASE
100
AcDbVertex
100
AcDbPolyFaceMeshVertex
 10
29.98590660095215
 20
-31.87222862243652
 30
45.38037490844727
 70
   192
  0
VERTEX
  5
1D0
330
1AB
100
AcDbEntity
  8
BASE
100
AcDbVertex
100
AcDbPolyFaceMeshVertex
 10
29.99501609802246
 20
-32.79682159423828
 30
45.38037490844727
 70
   192
  0
VERTEX
  5
1D1
330
1AB
100
AcDbEntity
  8
BASE
100
AcDbVertex
100
AcDbPolyFaceMeshVertex
 10
29.35045433044434
 20
-32.53020095825195
 30
45.38037490844727
 70
   192
  0
VERTEX
  5
1D2
330
1AB
100
AcDbEntity
  8
BASE
100
AcDbVertex
100
AcDbPolyFaceMeshVertex
 10
29.09532737731934
 20
-31.88100242614746
 30
45.38037490844727
 70
   192
  0
VERTEX
  5
1D3
330
1AB
100
AcDbEntity
  8
BASE
100
AcDbVertex
100
AcDbPolyFaceMeshVertex
 10
30.87604904174805
 20
-33.16876983642578
 30
37.42823028564453
 70
   192
  0
VERTEX
  5
1D4
330
1AB
100
AcDbEntity
  8
BASE
100
AcDbVertex
100
AcDbPolyFaceMeshVertex
 10
30.87648963928223
 20
-34.32863616943359
 30
38.40296936035156
 70
   192
  0
VERTEX
  5
1D5
330
1AB
100
AcDbEntity
  8
BASE
100
AcDbVertex
100
AcDbPolyFaceMeshVertex
 10
29.09532737731934
 20
-34.34207916259766
 30
38.41424942016602
 70
   192
  0
VERTEX
  5
1D6
330
1AB
100
AcDbEntity
  8
BASE
100
AcDbVertex
100
AcDbPolyFaceMeshVertex
 10
29.09927749633789
 20
-33.16876983642578
 30
37.42823028564453
 70
   192
  0
VERTEX
  5
1D7
330
1AB
100
AcDbEntity
  8
BASE
100
AcDbVertex
100
AcDbPolyFaceMeshVertex
 10
30.87604904174805
 20
-59.48560333251953
 30
0.0000000000000227
 70
   192
  0
VERTEX
  5
1D8
330
1AB
100
AcDbEntity
  8
BASE
100
AcDbVertex
100
AcDbPolyFaceMeshVertex
 10
30.87648963928223
 20
-61.00059127807617
 30
0.0144628714770079
 70
   192
  0
VERTEX
  5
1D9
330
1AB
100
AcDbEntity
  8
BASE
100
AcDbVertex
100
AcDbPolyFaceMeshVertex
 10
29.09532737731934
 20
-61.01813888549805
 30
0.0146171180531383
 70
   192
  0
VERTEX
  5
1DA
330
1AB
100
AcDbEntity
  8
BASE
100
AcDbVertex
100
AcDbPolyFaceMeshVertex
 10
29.09927749633789
 20
-59.48560333251953
 30
0.0000000000000227
 70
   192
  0
VERTEX
  5
1DB
330
1AB
100
AcDbEntity
  8
BASE
100
AcDbVertex
100
AcDbPolyFaceMeshVertex
 10
29.09927749633789
 20
-33.16876983642578
 30
37.42823028564453
 70
   192
  0
VERTEX
  5
1DC
330
1AB
100
AcDbEntity
  8
BASE
100
AcDbVertex
100
AcDbPolyFaceMeshVertex
 10
29.09532737731934
 20
-34.34207916259766
 30
38.41424942016602
 70
   192
  0
VERTEX
  5
1DD
330
1AB
100
AcDbEntity
  8
BASE
100
AcDbVertex
100
AcDbPolyFaceMeshVertex
 10
29.09532737731934
 20
-61.01813888549805
 30
0.0146171180531383
 70
   192
  0
VERTEX
  5
1DE
330
1AB
100
AcDbEntity
  8
BASE
100
AcDbVertex
100
AcDbPolyFaceMeshVertex
 10
29.09927749633789
 20
-59.48560333251953
 30
0.0000000000000227
 70
   192
  0
VERTEX
  5
1DF
330
1AB
100
AcDbEntity
  8
BASE
100
AcDbVertex
100
AcDbPolyFaceMeshVertex
 10
30.87604904174805
 20
-33.16876983642578
 30
37.42823028564453
 70
   192
  0
VERTEX
  5
1E0
330
1AB
100
AcDbEntity
  8
BASE
100
AcDbVertex
100
AcDbPolyFaceMeshVertex
 10
30.87648963928223
 20
-34.32863616943359
 30
38.40296936035156
 70
   192
  0
VERTEX
  5
1E1
330
1AB
100
AcDbEntity
  8
BASE
100
AcDbVertex
100
AcDbPolyFaceMeshVertex
 10
30.87648963928223
 20
-61.00059127807617
 30
0.0144628714770079
 70
   192
  0
VERTEX
  5
1E2
330
1AB
100
AcDbEntity
  8
BASE
100
AcDbVertex
100
AcDbPolyFaceMeshVertex
 10
30.87604904174805
 20
-59.48560333251953
 30
0.0000000000000227
 70
   192
  0
VERTEX
  5
1E3
330
1AB
100
AcDbEntity
  8
BASE
100
AcDbVertex
100
AcDbPolyFaceMeshVertex
 10
29.09927749633789
 20
-59.48560333251953
 30
0.0000000000000227
 70
   192
  0
VERTEX
  5
1E4
330
1AB
100
AcDbEntity
  8
BASE
100
AcDbVertex
100
AcDbPolyFaceMeshVertex
 10
30.87604904174805
 20
-59.48560333251953
 30
0.0000000000000227
 70
   192
  0
VERTEX
  5
1E5
330
1AB
100
AcDbEntity
  8
BASE
100
AcDbVertex
100
AcDbPolyFaceMeshVertex
 10
30.87604904174805
 20
-33.16876983642578
 30
37.42823028564453
 70
   192
  0
VERTEX
  5
1E6
330
1AB
100
AcDbEntity
  8
BASE
100
AcDbVertex
100
AcDbPolyFaceMeshVertex
 10
29.09927749633789
 20
-33.16876983642578
 30
37.42823028564453
 70
   192
  0
VERTEX
  5
1E7
330
1AB
100
AcDbEntity
  8
BASE
100
AcDbVertex
100
AcDbPolyFaceMeshVertex
 10
29.09927749633789
 20
-30.01071548461914
 30
45.38037490844727
 70
   192
  0
VERTEX
  5
1E8
330
1AB
100
AcDbEntity
  8
BASE
100
AcDbVertex
100
AcDbPolyFaceMeshVertex
 10
29.09927749633789
 20
-30.01071548461914
 30
42.96773529052734
 70
   192
  0
VERTEX
  5
1E9
330
1AB
100
AcDbEntity
  8
BASE
100
AcDbVertex
100
AcDbPolyFaceMeshVertex
 10
29.09532737731934
 20
-32.09524154663086
 30
43.90400314331055
 70
   192
  0
VERTEX
  5
1EA
330
1AB
100
AcDbEntity
  8
BASE
100
AcDbVertex
100
AcDbPolyFaceMeshVertex
 10
29.09532737731934
 20
-31.88100242614746
 30
45.38037490844727
 70
   192
  0
VERTEX
  5
1EB
330
1AB
100
AcDbEntity
  8
BASE
100
AcDbVertex
100
AcDbPolyFaceMeshVertex
 10
29.09927749633789
 20
-30.01071548461914
 30
42.96773529052734
 70
   192
  0
VERTEX
  5
1EC
330
1AB
100
AcDbEntity
  8
BASE
100
AcDbVertex
100
AcDbPolyFaceMeshVertex
 10
29.09927749633789
 20
-31.27781677246094
 30
40.0201530456543
 70
   192
  0
VERTEX
  5
1ED
330
1AB
100
AcDbEntity
  8
BASE
100
AcDbVertex
100
AcDbPolyFaceMeshVertex
 10
29.09532737731934
 20
-32.45253753662109
 30
42.45558929443359
 70
   192
  0
VERTEX
  5
1EE
330
1AB
100
AcDbEntity
  8
BASE
100
AcDbVertex
100
AcDbPolyFaceMeshVertex
 10
29.09532737731934
 20
-32.09524154663086
 30
43.90400314331055
 70
   192
  0
VERTEX
  5
1EF
330
1AB
100
AcDbEntity
  8
BASE
100
AcDbVertex
100
AcDbPolyFaceMeshVertex
 10
29.09927749633789
 20
-31.27781677246094
 30
40.0201530456543
 70
   192
  0
VERTEX
  5
1F0
330
1AB
100
AcDbEntity
  8
BASE
100
AcDbVertex
100
AcDbPolyFaceMeshVertex
 10
29.09927749633789
 20
-32.22328948974609
 30
38.72418975830078
 70
   192
  0
VERTEX
  5
1F1
330
1AB
100
AcDbEntity
  8
BASE
100
AcDbVertex
100
AcDbPolyFaceMeshVertex
 10
29.09532737731934
 20
-32.94948959350586
 30
41.0489616394043
 70
   192
  0
VERTEX
  5
1F2
330
1AB
100
AcDbEntity
  8
BASE
100
AcDbVertex
100
AcDbPolyFaceMeshVertex
 10
29.09532737731934
 20
-32.45253753662109
 30
42.45558929443359
 70
   192
  0
VERTEX
  5
1F3
330
1AB
100
AcDbEntity
  8
BASE
100
AcDbVertex
100
AcDbPolyFaceMeshVertex
 10
29.09927749633789
 20
-32.22328948974609
 30
38.72418975830078
 70
   192
  0
VERTEX
  5
1F4
330
1AB
100
AcDbEntity
  8
BASE
100
AcDbVertex
100
AcDbPolyFaceMeshVertex
 10
29.09927749633789
 20
-32.69602966308594
 30
38.07621002197266
 70
   192
  0
VERTEX
  5
1F5
330
1AB
100
AcDbEntity
  8
BASE
100
AcDbVertex
100
AcDbPolyFaceMeshVertex
 10
29.09532737731934
 20
-33.58134841918945
 30
39.69754791259766
 70
   192
  0
VERTEX
  5
1F6
330
1AB
100
AcDbEntity
  8
BASE
100
AcDbVertex
100
AcDbPolyFaceMeshVertex
 10
29.09532737731934
 20
-32.94948959350586
 30
41.0489616394043
 70
   192
  0
VERTEX
  5
1F7
330
1AB
100
AcDbEntity
  8
BASE
100
AcDbVertex
100
AcDbPolyFaceMeshVertex
 10
29.09927749633789
 20
-32.69602966308594
 30
38.07621002197266
 70
   192
  0
VERTEX
  5
1F8
330
1AB
100
AcDbEntity
  8
BASE
100
AcDbVertex
100
AcDbPolyFaceMeshVertex
 10
29.09927749633789
 20
-33.16876983642578
 30
37.42823028564453
 70
   192
  0
VERTEX
  5
1F9
330
1AB
100
AcDbEntity
  8
BASE
100
AcDbVertex
100
AcDbPolyFaceMeshVertex
 10
29.09532737731934
 20
-34.34207916259766
 30
38.41424942016602
 70
   192
  0
VERTEX
  5
1FA
330
1AB
100
AcDbEntity
  8
BASE
100
AcDbVertex
100
AcDbPolyFaceMeshVertex
 10
29.09532737731934
 20
-33.58134841918945
 30
39.69754791259766
 70
   192
  0
VERTEX
  5
1FB
330
1AB
100
AcDbEntity
  8
BASE
100
AcDbVertex
100
AcDbPolyFaceMeshVertex
 10
30.87604904174805
 20
-32.22328948974609
 30
38.72418975830078
 70
   192
  0
VERTEX
  5
1FC
330
1AB
100
AcDbEntity
  8
BASE
100
AcDbVertex
100
AcDbPolyFaceMeshVertex
 10
30.87604904174805
 20
-32.69602966308594
 30
38.07621002197266
 70
   192
  0
VERTEX
  5
1FD
330
1AB
100
AcDbEntity
  8
BASE
100
AcDbVertex
100
AcDbPolyFaceMeshVertex
 10
30.8799991607666
 20
-33.58134841918945
 30
39.69754791259766
 70
   192
  0
VERTEX
  5
1FE
330
1AB
100
AcDbEntity
  8
BASE
100
AcDbVertex
100
AcDbPolyFaceMeshVertex
 10
30.8799991607666
 20
-32.94948959350586
 30
41.0489616394043
 70
   192
  0
VERTEX
  5
1FF
330
1AB
100
AcDbEntity
  8
BASE
100
AcDbVertex
100
AcDbPolyFaceMeshVertex
 10
30.87604904174805
 20
-32.69602966308594
 30
38.07621002197266
 70
   192
  0
VERTEX
  5
200
330
1AB
100
AcDbEntity
  8
BASE
100
AcDbVertex
100
AcDbPolyFaceMeshVertex
 10
30.87604904174805
 20
-33.16876983642578
 30
37.42823028564453
 70
   192
  0
VERTEX
  5
201
330
1AB
100
AcDbEntity
  8
BASE
100
AcDbVertex
100
AcDbPolyFaceMeshVertex
 10
30.8799991607666
 20
-34.34207916259766
 30
38.41424942016602
 70
   192
  0
VERTEX
  5
202
330
1AB
100
AcDbEntity
  8
BASE
100
AcDbVertex
100
AcDbPolyFaceMeshVertex
 10
30.8799991607666
 20
-33.58134841918945
 30
39.69754791259766
 70
   192
  0
VERTEX
  5
203
330
1AB
100
AcDbEntity
  8
BASE
100
AcDbVertex
100
AcDbPolyFaceMeshVertex
 10
30.87604904174805
 20
-31.27781677246094
 30
40.0201530456543
 70
   192
  0
VERTEX
  5
204
330
1AB
100
AcDbEntity
  8
BASE
100
AcDbVertex
100
AcDbPolyFaceMeshVertex
 10
30.87604904174805
 20
-32.22328948974609
 30
38.72418975830078
 70
   192
  0
VERTEX
  5
205
330
1AB
100
AcDbEntity
  8
BASE
100
AcDbVertex
100
AcDbPolyFaceMeshVertex
 10
30.8799991607666
 20
-32.94948959350586
 30
41.0489616394043
 70
   192
  0
VERTEX
  5
206
330
1AB
100
AcDbEntity
  8
BASE
100
AcDbVertex
100
AcDbPolyFaceMeshVertex
 10
30.8799991607666
 20
-32.45253753662109
 30
42.45558929443359
 70
   192
  0
VERTEX
  5
207
330
1AB
100
AcDbEntity
  8
BASE
100
AcDbVertex
100
AcDbPolyFaceMeshVertex
 10
30.87604904174805
 20
-30.01071548461914
 30
45.38037490844727
 70
   192
  0
VERTEX
  5
208
330
1AB
100
AcDbEntity
  8
BASE
100
AcDbVertex
100
AcDbPolyFaceMeshVertex
 10
30.87604904174805
 20
-30.01071548461914
 30
42.96773529052734
 70
   192
  0
VERTEX
  5
209
330
1AB
100
AcDbEntity
  8
BASE
100
AcDbVertex
100
AcDbPolyFaceMeshVertex
 10
30.8799991607666
 20
-32.09524154663086
 30
43.90400314331055
 70
   192
  0
VERTEX
  5
20A
330
1AB
100
AcDbEntity
  8
BASE
100
AcDbVertex
100
AcDbPolyFaceMeshVertex
 10
30.8799991607666
 20
-31.88100242614746
 30
45.38037490844727
 70
   192
  0
VERTEX
  5
20B
330
1AB
100
AcDbEntity
  8
BASE
100
AcDbVertex
100
AcDbPolyFaceMeshVertex
 10
30.87604904174805
 20
-30.01071548461914
 30
42.96773529052734
 70
   192
  0
VERTEX
  5
20C
330
1AB
100
AcDbEntity
  8
BASE
100
AcDbVertex
100
AcDbPolyFaceMeshVertex
 10
30.87604904174805
 20
-31.27781677246094
 30
40.0201530456543
 70
   192
  0
VERTEX
  5
20D
330
1AB
100
AcDbEntity
  8
BASE
100
AcDbVertex
100
AcDbPolyFaceMeshVertex
 10
30.8799991607666
 20
-32.45253753662109
 30
42.45558929443359
 70
   192
  0
VERTEX
  5
20E
330
1AB
100
AcDbEntity
  8
BASE
100
AcDbVertex
100
AcDbPolyFaceMeshVertex
 10
30.8799991607666
 20
-32.09524154663086
 30
43.90400314331055
 70
   192
  0
VERTEX
  5
20F
330
1AB
100
AcDbEntity
  8
BASE
100
AcDbVertex
100
AcDbPolyFaceMeshVertex
 10
29.09927749633789
 20
-30.01071548461914
 30
45.38037490844727
 70
   192
  0
VERTEX
  5
210
330
1AB
100
AcDbEntity
  8
BASE
100
AcDbVertex
100
AcDbPolyFaceMeshVertex
 10
27.52910804748535
 20
-29.02724075317383
 30
45.38037490844727
 70
   192
  0
VERTEX
  5
211
330
1AB
100
AcDbEntity
  8
BASE
100
AcDbVertex
100
AcDbPolyFaceMeshVertex
 10
28.46007347106934
 20
-27.50864028930664
 30
45.38037490844727
 70
   192
  0
VERTEX
  5
212
330
1AB
100
AcDbEntity
  8
BASE
100
AcDbVertex
100
AcDbPolyFaceMeshVertex
 10
30.04278182983398
 20
-28.50515174865723
 30
45.38037490844727
 70
   192
  0
VERTEX
  5
213
330
1AB
100
AcDbEntity
  8
BASE
100
AcDbVertex
100
AcDbPolyFaceMeshVertex
 10
27.99459266662598
 20
-28.2679386138916
 30
45.38037490844727
 70
   192
  0
VERTEX
  5
214
330
1AB
100
AcDbEntity
  8
BASE
100
AcDbVertex
100
AcDbPolyFaceMeshVertex
 10
27.20629501342773
 20
-27.7846794128418
 30
45.38037490844727
 70
   192
  0
VERTEX
  5
215
330
1AB
100
AcDbEntity
  8
BASE
100
AcDbVertex
100
AcDbPolyFaceMeshVertex
 10
27.103515625
 20
-28.47459411621094
 30
45.38037490844727
 70
   192
  0
VERTEX
  5
216
330
1AB
100
AcDbEntity
  8
BASE
100
AcDbVertex
100
AcDbPolyFaceMeshVertex
 10
27.52910804748535
 20
-29.02724075317383
 30
45.38037490844727
 70
   192
  0
VERTEX
  5
217
330
1AB
100
AcDbEntity
  8
BASE
100
AcDbVertex
100
AcDbPolyFaceMeshVertex
 10
27.99459266662598
 20
-28.2679386138916
 30
45.38037490844727
 70
   192
  0
VERTEX
  5
218
330
1AB
100
AcDbEntity
  8
BASE
100
AcDbVertex
100
AcDbPolyFaceMeshVertex
 10
27.20629501342773
 20
-27.7846794128418
 30
45.38037490844727
 70
   192
  0
VERTEX
  5
219
330
1AB
100
AcDbEntity
  8
BASE
100
AcDbVertex
100
AcDbPolyFaceMeshVertex
 10
27.77449417114258
 20
-27.38008689880371
 30
45.38037490844727
 70
   192
  0
VERTEX
  5
21A
330
1AB
100
AcDbEntity
  8
BASE
100
AcDbVertex
100
AcDbPolyFaceMeshVertex
 10
28.46007347106934
 20
-27.50864028930664
 30
45.38037490844727
 70
   192
  0
VERTEX
  5
21B
330
1AB
100
AcDbEntity
  8
BASE
100
AcDbVertex
100
AcDbPolyFaceMeshVertex
 10
26.42327499389648
 20
-28.33371925354004
 30
37.42823028564453
 70
   192
  0
VERTEX
  5
21C
330
1AB
100
AcDbEntity
  8
BASE
100
AcDbVertex
100
AcDbPolyFaceMeshVertex
 10
25.44021987915039
 20
-27.71817588806152
 30
38.40296936035156
 70
   192
  0
VERTEX
  5
21D
330
1AB
100
AcDbEntity
  8
BASE
100
AcDbVertex
100
AcDbPolyFaceMeshVertex
 10
26.37466430664062
 20
-26.20175552368164
 30
38.41424942016602
 70
   192
  0
VERTEX
  5
21E
330
1AB
100
AcDbEntity
  8
BASE
100
AcDbVertex
100
AcDbPolyFaceMeshVertex
 10
27.36678123474121
 20
-26.82815551757812
 30
37.42823028564453
 70
   192
  0
VERTEX
  5
21F
330
1AB
100
AcDbEntity
  8
BASE
100
AcDbVertex
100
AcDbPolyFaceMeshVertex
 10
3.276137828826904
 20
-13.82787132263184
 30
0.0
 70
   192
  0
VERTEX
  5
220
330
1AB
100
AcDbEntity
  8
BASE
100
AcDbVertex
100
AcDbPolyFaceMeshVertex
 10
1.992164969444275
 20
-13.02375030517578
 30
0.0144628714770079
 70
   192
  0
VERTEX
  5
221
330
1AB
100
AcDbEntity
  8
BASE
100
AcDbVertex
100
AcDbPolyFaceMeshVertex
 10
2.923131942749023
 20
-11.50515079498291
 30
0.0146171180531383
 70
   192
  0
VERTEX
  5
222
330
1AB
100
AcDbEntity
  8
BASE
100
AcDbVertex
100
AcDbPolyFaceMeshVertex
 10
4.219644546508789
 20
-12.32230854034424
 30
0.0
 70
   192
  0
VERTEX
  5
223
330
1AB
100
AcDbEntity
  8
BASE
100
AcDbVertex
100
AcDbPolyFaceMeshVertex
 10
27.36678123474121
 20
-26.82815551757812
 30
37.42823028564453
 70
   192
  0
VERTEX
  5
224
330
1AB
100
AcDbEntity
  8
BASE
100
AcDbVertex
100
AcDbPolyFaceMeshVertex
 10
26.37466430664062
 20
-26.20175552368164
 30
38.41424942016602
 70
   192
  0
VERTEX
  5
225
330
1AB
100
AcDbEntity
  8
BASE
100
AcDbVertex
100
AcDbPolyFaceMeshVertex
 10
2.923131942749023
 20
-11.50515079498291
 30
0.0146171180531383
 70
   192
  0
VERTEX
  5
226
330
1AB
100
AcDbEntity
  8
BASE
100
AcDbVertex
100
AcDbPolyFaceMeshVertex
 10
4.219644546508789
 20
-12.32230854034424
 30
0.0
 70
   192
  0
VERTEX
  5
227
330
1AB
100
AcDbEntity
  8
BASE
100
AcDbVertex
100
AcDbPolyFaceMeshVertex
 10
26.42327499389648
 20
-28.33371925354004
 30
37.42823028564453
 70
   192
  0
VERTEX
  5
228
330
1AB
100
AcDbEntity
  8
BASE
100
AcDbVertex
100
AcDbPolyFaceMeshVertex
 10
25.44021987915039
 20
-27.71817588806152
 30
38.40296936035156
 70
   192
  0
VERTEX
  5
229
330
1AB
100
AcDbEntity
  8
BASE
100
AcDbVertex
100
AcDbPolyFaceMeshVertex
 10
1.992164969444275
 20
-13.02375030517578
 30
0.0144628714770079
 70
   192
  0
VERTEX
  5
22A
330
1AB
100
AcDbEntity
  8
BASE
100
AcDbVertex
100
AcDbPolyFaceMeshVertex
 10
3.276137828826904
 20
-13.82787132263184
 30
0.0
 70
   192
  0
VERTEX
  5
22B
330
1AB
100
AcDbEntity
  8
BASE
100
AcDbVertex
100
AcDbPolyFaceMeshVertex
 10
4.219644546508789
 20
-12.32230854034424
 30
0.0
 70
   192
  0
VERTEX
  5
22C
330
1AB
100
AcDbEntity
  8
BASE
100
AcDbVertex
100
AcDbPolyFaceMeshVertex
 10
3.276137828826904
 20
-13.82787132263184
 30
0.0
 70
   192
  0
VERTEX
  5
22D
330
1AB
100
AcDbEntity
  8
BASE
100
AcDbVertex
100
AcDbPolyFaceMeshVertex
 10
26.42327499389648
 20
-28.33371925354004
 30
37.42823028564453
 70
   192
  0
VERTEX
  5
22E
330
1AB
100
AcDbEntity
  8
BASE
100
AcDbVertex
100
AcDbPolyFaceMeshVertex
 10
27.36678123474121
 20
-26.82815551757812
 30
37.42823028564453
 70
   192
  0
VERTEX
  5
22F
330
1AB
100
AcDbEntity
  8
BASE
100
AcDbVertex
100
AcDbPolyFaceMeshVertex
 10
30.04278182983398
 20
-28.50515174865723
 30
45.38037490844727
 70
   192
  0
VERTEX
  5
230
330
1AB
100
AcDbEntity
  8
BASE
100
AcDbVertex
100
AcDbPolyFaceMeshVertex
 10
30.04278182983398
 20
-28.50515174865723
 30
42.96773529052734
 70
   192
  0
VERTEX
  5
231
330
1AB
100
AcDbEntity
  8
BASE
100
AcDbVertex
100
AcDbPolyFaceMeshVertex
 10
28.27853965759277
 20
-27.39487648010254
 30
43.90400314331055
 70
   192
  0
VERTEX
  5
232
330
1AB
100
AcDbEntity
  8
BASE
100
AcDbVertex
100
AcDbPolyFaceMeshVertex
 10
28.46007347106934
 20
-27.50864028930664
 30
45.38037490844727
 70
   192
  0
VERTEX
  5
233
330
1AB
100
AcDbEntity
  8
BASE
100
AcDbVertex
100
AcDbPolyFaceMeshVertex
 10
30.04278182983398
 20
-28.50515174865723
 30
42.96773529052734
 70
   192
  0
VERTEX
  5
234
330
1AB
100
AcDbEntity
  8
BASE
100
AcDbVertex
100
AcDbPolyFaceMeshVertex
 10
28.96909141540527
 20
-27.83229064941406
 30
40.0201530456543
 70
   192
  0
VERTEX
  5
235
330
1AB
100
AcDbEntity
  8
BASE
100
AcDbVertex
100
AcDbPolyFaceMeshVertex
 10
27.97577857971191
 20
-27.20514297485352
 30
42.45558929443359
 70
   192
  0
VERTEX
  5
236
330
1AB
100
AcDbEntity
  8
BASE
100
AcDbVertex
100
AcDbPolyFaceMeshVertex
 10
28.27853965759277
 20
-27.39487648010254
 30
43.90400314331055
 70
   192
  0
VERTEX
  5
237
330
1AB
100
AcDbEntity
  8
BASE
100
AcDbVertex
100
AcDbPolyFaceMeshVertex
 10
28.96909141540527
 20
-27.83229064941406
 30
40.0201530456543
 70
   192
  0
VERTEX
  5
238
330
1AB
100
AcDbEntity
  8
BASE
100
AcDbVertex
100
AcDbPolyFaceMeshVertex
 10
28.16793823242188
 20
-27.33022117614746
 30
38.72418975830078
 70
   192
  0
VERTEX
  5
239
330
1AB
100
AcDbEntity
  8
BASE
100
AcDbVertex
100
AcDbPolyFaceMeshVertex
 10
27.55468368530273
 20
-26.94124984741211
 30
41.0489616394043
 70
   192
  0
VERTEX
  5
23A
330
1AB
100
AcDbEntity
  8
BASE
100
AcDbVertex
100
AcDbPolyFaceMeshVertex
 10
27.97577857971191
 20
-27.20514297485352
 30
42.45558929443359
 70
   192
  0
VERTEX
  5
23B
330
1AB
100
AcDbEntity
  8
BASE
100
AcDbVertex
100
AcDbPolyFaceMeshVertex
 10
28.16793823242188
 20
-27.33022117614746
 30
38.72418975830078
 70
   192
  0
VERTEX
  5
23C
330
1AB
100
AcDbEntity
  8
BASE
100
AcDbVertex
100
AcDbPolyFaceMeshVertex
 10
27.76735877990723
 20
-27.07918930053711
 30
38.07621002197266
 70
   192
  0
VERTEX
  5
23D
330
1AB
100
AcDbEntity
  8
BASE
100
AcDbVertex
100
AcDbPolyFaceMeshVertex
 10
27.0192756652832
 20
-26.6057186126709
 30
39.69754791259766
 70
   192
  0
VERTEX
  5
23E
330
1AB
100
AcDbEntity
  8
BASE
100
AcDbVertex
100
AcDbPolyFaceMeshVertex
 10
27.55468368530273
 20
-26.94124984741211
 30
41.0489616394043
 70
   192
  0
VERTEX
  5
23F
330
1AB
100
AcDbEntity
  8
BASE
100
AcDbVertex
100
AcDbPolyFaceMeshVertex
 10
27.76735877990723
 20
-27.07918930053711
 30
38.07621002197266
 70
   192
  0
VERTEX
  5
240
330
1AB
100
AcDbEntity
  8
BASE
100
AcDbVertex
100
AcDbPolyFaceMeshVertex
 10
27.36678123474121
 20
-26.82815551757812
 30
37.42823028564453
 70
   192
  0
VERTEX
  5
241
330
1AB
100
AcDbEntity
  8
BASE
100
AcDbVertex
100
AcDbPolyFaceMeshVertex
 10
26.37466430664062
 20
-26.20175552368164
 30
38.41424942016602
 70
   192
  0
VERTEX
  5
242
330
1AB
100
AcDbEntity
  8
BASE
100
AcDbVertex
100
AcDbPolyFaceMeshVertex
 10
27.0192756652832
 20
-26.6057186126709
 30
39.69754791259766
 70
   192
  0
VERTEX
  5
243
330
1AB
100
AcDbEntity
  8
BASE
100
AcDbVertex
100
AcDbPolyFaceMeshVertex
 10
27.22443008422852
 20
-28.83578872680664
 30
38.72418975830078
 70
   192
  0
VERTEX
  5
244
330
1AB
100
AcDbEntity
  8
BASE
100
AcDbVertex
100
AcDbPolyFaceMeshVertex
 10
26.8238525390625
 20
-28.58475303649902
 30
38.07621002197266
 70
   192
  0
VERTEX
  5
245
330
1AB
100
AcDbEntity
  8
BASE
100
AcDbVertex
100
AcDbPolyFaceMeshVertex
 10
26.07157516479492
 20
-28.11797523498535
 30
39.69754791259766
 70
   192
  0
VERTEX
  5
246
330
1AB
100
AcDbEntity
  8
BASE
100
AcDbVertex
100
AcDbPolyFaceMeshVertex
 10
26.60698318481445
 20
-28.4535026550293
 30
41.0489616394043
 70
   192
  0
VERTEX
  5
247
330
1AB
100
AcDbEntity
  8
BASE
100
AcDbVertex
100
AcDbPolyFaceMeshVertex
 10
26.8238525390625
 20
-28.58475303649902
 30
38.07621002197266
 70
   192
  0
VERTEX
  5
248
330
1AB
100
AcDbEntity
  8
BASE
100
AcDbVertex
100
AcDbPolyFaceMeshVertex
 10
26.42327499389648
 20
-28.33371925354004
 30
37.42823028564453
 70
   192
  0
VERTEX
  5
249
330
1AB
100
AcDbEntity
  8
BASE
100
AcDbVertex
100
AcDbPolyFaceMeshVertex
 10
25.42696571350098
 20
-27.71401023864746
 30
38.41424942016602
 70
   192
  0
VERTEX
  5
24A
330
1AB
100
AcDbEntity
  8
BASE
100
AcDbVertex
100
AcDbPolyFaceMeshVertex
 10
26.07157516479492
 20
-28.11797523498535
 30
39.69754791259766
 70
   192
  0
VERTEX
  5
24B
330
1AB
100
AcDbEntity
  8
BASE
100
AcDbVertex
100
AcDbPolyFaceMeshVertex
 10
28.02558517456055
 20
-29.33785438537598
 30
40.0201530456543
 70
   192
  0
VERTEX
  5
24C
330
1AB
100
AcDbEntity
  8
BASE
100
AcDbVertex
100
AcDbPolyFaceMeshVertex
 10
27.22443008422852
 20
-28.83578872680664
 30
38.72418975830078
 70
   192
  0
VERTEX
  5
24D
330
1AB
100
AcDbEntity
  8
BASE
100
AcDbVertex
100
AcDbPolyFaceMeshVertex
 10
26.60698318481445
 20
-28.4535026550293
 30
41.0489616394043
 70
   192
  0
VERTEX
  5
24E
330
1AB
100
AcDbEntity
  8
BASE
100
AcDbVertex
100
AcDbPolyFaceMeshVertex
 10
27.02807998657227
 20
-28.7173957824707
 30
42.45558929443359
 70
   192
  0
VERTEX
  5
24F
330
1AB
100
AcDbEntity
  8
BASE
100
AcDbVertex
100
AcDbPolyFaceMeshVertex
 10
29.09927749633789
 20
-30.01071548461914
 30
45.38037490844727
 70
   192
  0
VERTEX
  5
250
330
1AB
100
AcDbEntity
  8
BASE
100
AcDbVertex
100
AcDbPolyFaceMeshVertex
 10
29.09927749633789
 20
-30.01071548461914
 30
42.96773529052734
 70
   192
  0
VERTEX
  5
251
330
1AB
100
AcDbEntity
  8
BASE
100
AcDbVertex
100
AcDbPolyFaceMeshVertex
 10
27.33083724975586
 20
-28.90712928771973
 30
43.90400314331055
 70
   192
  0
VERTEX
  5
252
330
1AB
100
AcDbEntity
  8
BASE
100
AcDbVertex
100
AcDbPolyFaceMeshVertex
 10
27.51237487792969
 20
-29.02089500427246
 30
45.38037490844727
 70
   192
  0
VERTEX
  5
253
330
1AB
100
AcDbEntity
  8
BASE
100
AcDbVertex
100
AcDbPolyFaceMeshVertex
 10
29.09927749633789
 20
-30.01071548461914
 30
42.96773529052734
 70
   192
  0
VERTEX
  5
254
330
1AB
100
AcDbEntity
  8
BASE
100
AcDbVertex
100
AcDbPolyFaceMeshVertex
 10
28.02558517456055
 20
-29.33785438537598
 30
40.0201530456543
 70
   192
  0
VERTEX
  5
255
330
1AB
100
AcDbEntity
  8
BASE
100
AcDbVertex
100
AcDbPolyFaceMeshVertex
 10
27.02807998657227
 20
-28.7173957824707
 30
42.45558929443359
 70
   192
  0
VERTEX
  5
256
330
1AB
100
AcDbEntity
  8
BASE
100
AcDbVertex
100
AcDbPolyFaceMeshVertex
 10
27.33083724975586
 20
-28.90712928771973
 30
43.90400314331055
 70
   192
  0
VERTEX
  5
257
330
1AB
100
AcDbEntity
  8
BASE
100
AcDbVertex
100
AcDbPolyFaceMeshVertex
 10
30.87604904174805
 20
-30.01071548461914
 30
45.38037490844727
 70
   192
  0
VERTEX
  5
258
330
1AB
100
AcDbEntity
  8
BASE
100
AcDbVertex
100
AcDbPolyFaceMeshVertex
 10
32.44622039794922
 20
-29.02724075317383
 30
45.38037490844727
 70
   192
  0
VERTEX
  5
259
330
1AB
100
AcDbEntity
  8
BASE
100
AcDbVertex
100
AcDbPolyFaceMeshVertex
 10
31.51524925231934
 20
-27.50864028930664
 30
45.38037490844727
 70
   192
  0
VERTEX
  5
25A
330
1AB
100
AcDbEntity
  8
BASE
100
AcDbVertex
100
AcDbPolyFaceMeshVertex
 10
29.93254470825195
 20
-28.50515174865723
 30
45.38037490844727
 70
   192
  0
VERTEX
  5
25B
330
1AB
100
AcDbEntity
  8
BASE
100
AcDbVertex
100
AcDbPolyFaceMeshVertex
 10
31.98073387145996
 20
-28.2679386138916
 30
45.38037490844727
 70
   192
  0
VERTEX
  5
25C
330
1AB
100
AcDbEntity
  8
BASE
100
AcDbVertex
100
AcDbPolyFaceMeshVertex
 10
32.7690315246582
 20
-27.7846794128418
 30
45.38037490844727
 70
   192
  0
VERTEX
  5
25D
330
1AB
100
AcDbEntity
  8
BASE
100
AcDbVertex
100
AcDbPolyFaceMeshVertex
 10
32.87181091308594
 20
-28.47459411621094
 30
45.38037490844727
 70
   192
  0
VERTEX
  5
25E
330
1AB
100
AcDbEntity
  8
BASE
100
AcDbVertex
100
AcDbPolyFaceMeshVertex
 10
32.44622039794922
 20
-29.02724075317383
 30
45.38037490844727
 70
   192
  0
VERTEX
  5
25F
330
1AB
100
AcDbEntity
  8
BASE
100
AcDbVertex
100
AcDbPolyFaceMeshVertex
 10
31.98073387145996
 20
-28.2679386138916
 30
45.38037490844727
 70
   192
  0
VERTEX
  5
260
330
1AB
100
AcDbEntity
  8
BASE
100
AcDbVertex
100
AcDbPolyFaceMeshVertex
 10
32.7690315246582
 20
-27.7846794128418
 30
45.38037490844727
 70
   192
  0
VERTEX
  5
261
330
1AB
100
AcDbEntity
  8
BASE
100
AcDbVertex
100
AcDbPolyFaceMeshVertex
 10
32.20082855224609
 20
-27.38008689880371
 30
45.38037490844727
 70
   192
  0
VERTEX
  5
262
330
1AB
100
AcDbEntity
  8
BASE
100
AcDbVertex
100
AcDbPolyFaceMeshVertex
 10
31.51524925231934
 20
-27.50864028930664
 30
45.38037490844727
 70
   192
  0
VERTEX
  5
263
330
1AB
100
AcDbEntity
  8
BASE
100
AcDbVertex
100
AcDbPolyFaceMeshVertex
 10
33.55205154418945
 20
-28.33371925354004
 30
37.42823028564453
 70
   192
  0
VERTEX
  5
264
330
1AB
100
AcDbEntity
  8
BASE
100
AcDbVertex
100
AcDbPolyFaceMeshVertex
 10
34.53510284423828
 20
-27.71817588806152
 30
38.40296936035156
 70
   192
  0
VERTEX
  5
265
330
1AB
100
AcDbEntity
  8
BASE
100
AcDbVertex
100
AcDbPolyFaceMeshVertex
 10
33.60065841674805
 20
-26.20175552368164
 30
38.41424942016602
 70
   192
  0
VERTEX
  5
266
330
1AB
100
AcDbEntity
  8
BASE
100
AcDbVertex
100
AcDbPolyFaceMeshVertex
 10
32.60854339599609
 20
-26.82815551757812
 30
37.42823028564453
 70
   192
  0
VERTEX
  5
267
330
1AB
100
AcDbEntity
  8
BASE
100
AcDbVertex
100
AcDbPolyFaceMeshVertex
 10
32.60854339599609
 20
-26.82815551757812
 30
37.42823028564453
 70
   192
  0
VERTEX
  5
268
330
1AB
100
AcDbEntity
  8
BASE
100
AcDbVertex
100
AcDbPolyFaceMeshVertex
 10
33.60065841674805
 20
-26.20175552368164
 30
38.41424942016602
 70
   192
  0
VERTEX
  5
269
330
1AB
100
AcDbEntity
  8
BASE
100
AcDbVertex
100
AcDbPolyFaceMeshVertex
 10
57.05219268798828
 20
-11.50515079498291
 30
0.0146171180531383
 70
   192
  0
VERTEX
  5
26A
330
1AB
100
AcDbEntity
  8
BASE
100
AcDbVertex
100
AcDbPolyFaceMeshVertex
 10
55.75568389892578
 20
-12.32230854034424
 30
0.0
 70
   192
  0
VERTEX
  5
26B
330
1AB
100
AcDbEntity
  8
BASE
100
AcDbVertex
100
AcDbPolyFaceMeshVertex
 10
33.55205154418945
 20
-28.33371925354004
 30
37.42823028564453
 70
   192
  0
VERTEX
  5
26C
330
1AB
100
AcDbEntity
  8
BASE
100
AcDbVertex
100
AcDbPolyFaceMeshVertex
 10
34.53510284423828
 20
-27.71817588806152
 30
38.40296936035156
 70
   192
  0
VERTEX
  5
26D
330
1AB
100
AcDbEntity
  8
BASE
100
AcDbVertex
100
AcDbPolyFaceMeshVertex
 10
57.98316192626953
 20
-13.02375030517578
 30
0.0144628714770079
 70
   192
  0
VERTEX
  5
26E
330
1AB
100
AcDbEntity
  8
BASE
100
AcDbVertex
100
AcDbPolyFaceMeshVertex
 10
56.69918823242188
 20
-13.82787132263184
 30
0.0
 70
   192
  0
VERTEX
  5
26F
330
1AB
100
AcDbEntity
  8
BASE
100
AcDbVertex
100
AcDbPolyFaceMeshVertex
 10
55.75568389892578
 20
-12.32230854034424
 30
0.0
 70
   192
  0
VERTEX
  5
270
330
1AB
100
AcDbEntity
  8
BASE
100
AcDbVertex
100
AcDbPolyFaceMeshVertex
 10
56.69918823242188
 20
-13.82787132263184
 30
0.0
 70
   192
  0
VERTEX
  5
271
330
1AB
100
AcDbEntity
  8
BASE
100
AcDbVertex
100
AcDbPolyFaceMeshVertex
 10
33.55205154418945
 20
-28.33371925354004
 30
37.42823028564453
 70
   192
  0
VERTEX
  5
272
330
1AB
100
AcDbEntity
  8
BASE
100
AcDbVertex
100
AcDbPolyFaceMeshVertex
 10
32.60854339599609
 20
-26.82815551757812
 30
37.42823028564453
 70
   192
  0
VERTEX
  5
273
330
1AB
100
AcDbEntity
  8
BASE
100
AcDbVertex
100
AcDbPolyFaceMeshVertex
 10
29.93254470825195
 20
-28.50515174865723
 30
45.38037490844727
 70
   192
  0
VERTEX
  5
274
330
1AB
100
AcDbEntity
  8
BASE
100
AcDbVertex
100
AcDbPolyFaceMeshVertex
 10
29.93254470825195
 20
-28.50515174865723
 30
42.96773529052734
 70
   192
  0
VERTEX
  5
275
330
1AB
100
AcDbEntity
  8
BASE
100
AcDbVertex
100
AcDbPolyFaceMeshVertex
 10
31.69678688049316
 20
-27.39487648010254
 30
43.90400314331055
 70
   192
  0
VERTEX
  5
276
330
1AB
100
AcDbEntity
  8
BASE
100
AcDbVertex
100
AcDbPolyFaceMeshVertex
 10
31.51524925231934
 20
-27.50864028930664
 30
45.38037490844727
 70
   192
  0
VERTEX
  5
277
330
1AB
100
AcDbEntity
  8
BASE
100
AcDbVertex
100
AcDbPolyFaceMeshVertex
 10
29.93254470825195
 20
-28.50515174865723
 30
42.96773529052734
 70
   192
  0
VERTEX
  5
278
330
1AB
100
AcDbEntity
  8
BASE
100
AcDbVertex
100
AcDbPolyFaceMeshVertex
 10
31.0062313079834
 20
-27.83229064941406
 30
40.0201530456543
 70
   192
  0
VERTEX
  5
279
330
1AB
100
AcDbEntity
  8
BASE
100
AcDbVertex
100
AcDbPolyFaceMeshVertex
 10
31.99954795837402
 20
-27.20514297485352
 30
42.45558929443359
 70
   192
  0
VERTEX
  5
27A
330
1AB
100
AcDbEntity
  8
BASE
100
AcDbVertex
100
AcDbPolyFaceMeshVertex
 10
31.69678688049316
 20
-27.39487648010254
 30
43.90400314331055
 70
   192
  0
VERTEX
  5
27B
330
1AB
100
AcDbEntity
  8
BASE
100
AcDbVertex
100
AcDbPolyFaceMeshVertex
 10
31.0062313079834
 20
-27.83229064941406
 30
40.0201530456543
 70
   192
  0
VERTEX
  5
27C
330
1AB
100
AcDbEntity
  8
BASE
100
AcDbVertex
100
AcDbPolyFaceMeshVertex
 10
31.80738830566406
 20
-27.33022117614746
 30
38.72418975830078
 70
   192
  0
VERTEX
  5
27D
330
1AB
100
AcDbEntity
  8
BASE
100
AcDbVertex
100
AcDbPolyFaceMeshVertex
 10
32.4206428527832
 20
-26.94124984741211
 30
41.0489616394043
 70
   192
  0
VERTEX
  5
27E
330
1AB
100
AcDbEntity
  8
BASE
100
AcDbVertex
100
AcDbPolyFaceMeshVertex
 10
31.99954795837402
 20
-27.20514297485352
 30
42.45558929443359
 70
   192
  0
VERTEX
  5
27F
330
1AB
100
AcDbEntity
  8
BASE
100
AcDbVertex
100
AcDbPolyFaceMeshVertex
 10
31.80738830566406
 20
-27.33022117614746
 30
38.72418975830078
 70
   192
  0
VERTEX
  5
280
330
1AB
100
AcDbEntity
  8
BASE
100
AcDbVertex
100
AcDbPolyFaceMeshVertex
 10
32.20796585083008
 20
-27.07918930053711
 30
38.07621002197266
 70
   192
  0
VERTEX
  5
281
330
1AB
100
AcDbEntity
  8
BASE
100
AcDbVertex
100
AcDbPolyFaceMeshVertex
 10
32.95604705810547
 20
-26.6057186126709
 30
39.69754791259766
 70
   192
  0
VERTEX
  5
282
330
1AB
100
AcDbEntity
  8
BASE
100
AcDbVertex
100
AcDbPolyFaceMeshVertex
 10
32.4206428527832
 20
-26.94124984741211
 30
41.0489616394043
 70
   192
  0
VERTEX
  5
283
330
1AB
100
AcDbEntity
  8
BASE
100
AcDbVertex
100
AcDbPolyFaceMeshVertex
 10
32.20796585083008
 20
-27.07918930053711
 30
38.07621002197266
 70
   192
  0
VERTEX
  5
284
330
1AB
100
AcDbEntity
  8
BASE
100
AcDbVertex
100
AcDbPolyFaceMeshVertex
 10
32.60854339599609
 20
-26.82815551757812
 30
37.42823028564453
 70
   192
  0
VERTEX
  5
285
330
1AB
100
AcDbEntity
  8
BASE
100
AcDbVertex
100
AcDbPolyFaceMeshVertex
 10
33.60065841674805
 20
-26.20175552368164
 30
38.41424942016602
 70
   192
  0
VERTEX
  5
286
330
1AB
100
AcDbEntity
  8
BASE
100
AcDbVertex
100
AcDbPolyFaceMeshVertex
 10
32.95604705810547
 20
-26.6057186126709
 30
39.69754791259766
 70
   192
  0
VERTEX
  5
287
330
1AB
100
AcDbEntity
  8
BASE
100
AcDbVertex
100
AcDbPolyFaceMeshVertex
 10
32.75089263916016
 20
-28.83578872680664
 30
38.72418975830078
 70
   192
  0
VERTEX
  5
288
330
1AB
100
AcDbEntity
  8
BASE
100
AcDbVertex
100
AcDbPolyFaceMeshVertex
 10
33.15147399902344
 20
-28.58475303649902
 30
38.07621002197266
 70
   192
  0
VERTEX
  5
289
330
1AB
100
AcDbEntity
  8
BASE
100
AcDbVertex
100
AcDbPolyFaceMeshVertex
 10
33.90375137329102
 20
-28.11797523498535
 30
39.69754791259766
 70
   192
  0
VERTEX
  5
28A
330
1AB
100
AcDbEntity
  8
BASE
100
AcDbVertex
100
AcDbPolyFaceMeshVertex
 10
33.36833953857422
 20
-28.4535026550293
 30
41.0489616394043
 70
   192
  0
VERTEX
  5
28B
330
1AB
100
AcDbEntity
  8
BASE
100
AcDbVertex
100
AcDbPolyFaceMeshVertex
 10
33.15147399902344
 20
-28.58475303649902
 30
38.07621002197266
 70
   192
  0
VERTEX
  5
28C
330
1AB
100
AcDbEntity
  8
BASE
100
AcDbVertex
100
AcDbPolyFaceMeshVertex
 10
33.55205154418945
 20
-28.33371925354004
 30
37.42823028564453
 70
   192
  0
VERTEX
  5
28D
330
1AB
100
AcDbEntity
  8
BASE
100
AcDbVertex
100
AcDbPolyFaceMeshVertex
 10
34.54836273193359
 20
-27.71401023864746
 30
38.41424942016602
 70
   192
  0
VERTEX
  5
28E
330
1AB
100
AcDbEntity
  8
BASE
100
AcDbVertex
100
AcDbPolyFaceMeshVertex
 10
33.90375137329102
 20
-28.11797523498535
 30
39.69754791259766
 70
   192
  0
VERTEX
  5
28F
330
1AB
100
AcDbEntity
  8
BASE
100
AcDbVertex
100
AcDbPolyFaceMeshVertex
 10
31.94973754882812
 20
-29.33785438537598
 30
40.0201530456543
 70
   192
  0
VERTEX
  5
290
330
1AB
100
AcDbEntity
  8
BASE
100
AcDbVertex
100
AcDbPolyFaceMeshVertex
 10
32.75089263916016
 20
-28.83578872680664
 30
38.72418975830078
 70
   192
  0
VERTEX
  5
291
330
1AB
100
AcDbEntity
  8
BASE
100
AcDbVertex
100
AcDbPolyFaceMeshVertex
 10
33.36833953857422
 20
-28.4535026550293
 30
41.0489616394043
 70
   192
  0
VERTEX
  5
292
330
1AB
100
AcDbEntity
  8
BASE
100
AcDbVertex
100
AcDbPolyFaceMeshVertex
 10
32.94724655151367
 20
-28.7173957824707
 30
42.45558929443359
 70
   192
  0
VERTEX
  5
293
330
1AB
100
AcDbEntity
  8
BASE
100
AcDbVertex
100
AcDbPolyFaceMeshVertex
 10
30.87604904174805
 20
-30.01071548461914
 30
45.38037490844727
 70
   192
  0
VERTEX
  5
294
330
1AB
100
AcDbEntity
  8
BASE
100
AcDbVertex
100
AcDbPolyFaceMeshVertex
 10
30.87604904174805
 20
-30.01071548461914
 30
42.96773529052734
 70
   192
  0
VERTEX
  5
295
330
1AB
100
AcDbEntity
  8
BASE
100
AcDbVertex
100
AcDbPolyFaceMeshVertex
 10
32.64448547363281
 20
-28.90712928771973
 30
43.90400314331055
 70
   192
  0
VERTEX
  5
296
330
1AB
100
AcDbEntity
  8
BASE
100
AcDbVertex
100
AcDbPolyFaceMeshVertex
 10
32.46295166015625
 20
-29.02089500427246
 30
45.38037490844727
 70
   192
  0
VERTEX
  5
297
330
1AB
100
AcDbEntity
  8
BASE
100
AcDbVertex
100
AcDbPolyFaceMeshVertex
 10
30.87604904174805
 20
-30.01071548461914
 30
42.96773529052734
 70
   192
  0
VERTEX
  5
298
330
1AB
100
AcDbEntity
  8
BASE
100
AcDbVertex
100
AcDbPolyFaceMeshVertex
 10
31.94973754882812
 20
-29.33785438537598
 30
40.0201530456543
 70
   192
  0
VERTEX
  5
299
330
1AB
100
AcDbEntity
  8
BASE
100
AcDbVertex
100
AcDbPolyFaceMeshVertex
 10
32.94724655151367
 20
-28.7173957824707
 30
42.45558929443359
 70
   192
  0
VERTEX
  5
29A
330
1AB
100
AcDbEntity
  8
BASE
100
AcDbVertex
100
AcDbPolyFaceMeshVertex
 10
32.64448547363281
 20
-28.90712928771973
 30
43.90400314331055
 70
   192
  0
VERTEX
  5
29B
330
1AB
100
AcDbEntity
  8
BASE
100
AcDbFaceRecord
 10
0.0
 20
0.0
 30
0.0
 70
   128
 71
     1
 72
     2
 73
     3
 74
     4
  0
VERTEX
  5
29C
330
1AB
100
AcDbEntity
  8
BASE
100
AcDbFaceRecord
 10
0.0
 20
0.0
 30
0.0
 70
   128
 71
     5
 72
     6
 73
     7
 74
     8
  0
VERTEX
  5
29D
330
1AB
100
AcDbEntity
  8
BASE
100
AcDbFaceRecord
 10
0.0
 20
0.0
 30
0.0
 70
   128
 71
     9
 72
    10
 73
    11
 74
    12
  0
VERTEX
  5
29E
330
1AB
100
AcDbEntity
  8
BASE
100
AcDbFaceRecord
 10
0.0
 20
0.0
 30
0.0
 70
   128
 71
    13
 72
    14
 73
    15
 74
    16
  0
VERTEX
  5
29F
330
1AB
100
AcDbEntity
  8
BASE
100
AcDbFaceRecord
 10
0.0
 20
0.0
 30
0.0
 70
   128
 71
    17
 72
    18
 73
    19
 74
    20
  0
VERTEX
  5
2A0
330
1AB
100
AcDbEntity
  8
BASE
100
AcDbFaceRecord
 10
0.0
 20
0.0
 30
0.0
 70
   128
 71
    21
 72
    22
 73
    23
 74
    24
  0
VERTEX
  5
2A1
330
1AB
100
AcDbEntity
  8
BASE
100
AcDbFaceRecord
 10
0.0
 20
0.0
 30
0.0
 70
   128
 71
    25
 72
    26
 73
    27
 74
    27
  0
VERTEX
  5
2A2
330
1AB
100
AcDbEntity
  8
BASE
100
AcDbFaceRecord
 10
0.0
 20
0.0
 30
0.0
 70
   128
 71
    28
 72
    29
 73
    30
 74
    31
  0
VERTEX
  5
2A3
330
1AB
100
AcDbEntity
  8
BASE
100
AcDbFaceRecord
 10
0.0
 20
0.0
 30
0.0
 70
   128
 71
    32
 72
    33
 73
    34
 74
    35
  0
VERTEX
  5
2A4
330
1AB
100
AcDbEntity
  8
BASE
100
AcDbFaceRecord
 10
0.0
 20
0.0
 30
0.0
 70
   128
 71
    36
 72
    37
 73
    38
 74
    39
  0
VERTEX
  5
2A5
330
1AB
100
AcDbEntity
  8
BASE
100
AcDbFaceRecord
 10
0.0
 20
0.0
 30
0.0
 70
   128
 71
    40
 72
    41
 73
    42
 74
    43
  0
VERTEX
  5
2A6
330
1AB
100
AcDbEntity
  8
BASE
100
AcDbFaceRecord
 10
0.0
 20
0.0
 30
0.0
 70
   128
 71
    44
 72
    45
 73
    46
 74
    47
  0
VERTEX
  5
2A7
330
1AB
100
AcDbEntity
  8
BASE
100
AcDbFaceRecord
 10
0.0
 20
0.0
 30
0.0
 70
   128
 71
    48
 72
    49
 73
    50
 74
    51
  0
VERTEX
  5
2A8
330
1AB
100
AcDbEntity
  8
BASE
100
AcDbFaceRecord
 10
0.0
 20
0.0
 30
0.0
 70
   128
 71
    52
 72
    53
 73
    54
 74
    55
  0
VERTEX
  5
2A9
330
1AB
100
AcDbEntity
  8
BASE
100
AcDbFaceRecord
 10
0.0
 20
0.0
 30
0.0
 70
   128
 71
    56
 72
    57
 73
    58
 74
    59
  0
VERTEX
  5
2AA
330
1AB
100
AcDbEntity
  8
BASE
100
AcDbFaceRecord
 10
0.0
 20
0.0
 30
0.0
 70
   128
 71
    60
 72
    61
 73
    62
 74
    63
  0
VERTEX
  5
2AB
330
1AB
100
AcDbEntity
  8
BASE
100
AcDbFaceRecord
 10
0.0
 20
0.0
 30
0.0
 70
   128
 71
    64
 72
    65
 73
    66
 74
    67
  0
VERTEX
  5
2AC
330
1AB
100
AcDbEntity
  8
BASE
100
AcDbFaceRecord
 10
0.0
 20
0.0
 30
0.0
 70
   128
 71
    68
 72
    69
 73
    70
 74
    71
  0
VERTEX
  5
2AD
330
1AB
100
AcDbEntity
  8
BASE
100
AcDbFaceRecord
 10
0.0
 20
0.0
 30
0.0
 70
   128
 71
    72
 72
    73
 73
    74
 74
    75
  0
VERTEX
  5
2AE
330
1AB
100
AcDbEntity
  8
BASE
100
AcDbFaceRecord
 10
0.0
 20
0.0
 30
0.0
 70
   128
 71
    76
 72
    77
 73
    78
 74
    79
  0
VERTEX
  5
2AF
330
1AB
100
AcDbEntity
  8
BASE
100
AcDbFaceRecord
 10
0.0
 20
0.0
 30
0.0
 70
   128
 71
    80
 72
    81
 73
    82
 74
    83
  0
VERTEX
  5
2B0
330
1AB
100
AcDbEntity
  8
BASE
100
AcDbFaceRecord
 10
0.0
 20
0.0
 30
0.0
 70
   128
 71
    84
 72
    85
 73
    86
 74
    87
  0
VERTEX
  5
2B1
330
1AB
100
AcDbEntity
  8
BASE
100
AcDbFaceRecord
 10
0.0
 20
0.0
 30
0.0
 70
   128
 71
    88
 72
    89
 73
    90
 74
    91
  0
VERTEX
  5
2B2
330
1AB
100
AcDbEntity
  8
BASE
100
AcDbFaceRecord
 10
0.0
 20
0.0
 30
0.0
 70
   128
 71
    92
 72
    93
 73
    94
 74
    95
  0
VERTEX
  5
2B3
330
1AB
100
AcDbEntity
  8
BASE
100
AcDbFaceRecord
 10
0.0
 20
0.0
 30
0.0
 70
   128
 71
    96
 72
    97
 73
    98
 74
    99
  0
VERTEX
  5
2B4
330
1AB
100
AcDbEntity
  8
BASE
100
AcDbFaceRecord
 10
0.0
 20
0.0
 30
0.0
 70
   128
 71
   100
 72
   101
 73
   102
 74
   103
  0
VERTEX
  5
2B5
330
1AB
100
AcDbEntity
  8
BASE
100
AcDbFaceRecord
 10
0.0
 20
0.0
 30
0.0
 70
   128
 71
   104
 72
   105
 73
   106
 74
   107
  0
VERTEX
  5
2B6
330
1AB
100
AcDbEntity
  8
BASE
100
AcDbFaceRecord
 10
0.0
 20
0.0
 30
0.0
 70
   128
 71
   108
 72
   109
 73
   110
 74
   111
  0
VERTEX
  5
2B7
330
1AB
100
AcDbEntity
  8
BASE
100
AcDbFaceRecord
 10
0.0
 20
0.0
 30
0.0
 70
   128
 71
   112
 72
   113
 73
   114
 74
   115
  0
VERTEX
  5
2B8
330
1AB
100
AcDbEntity
  8
BASE
100
AcDbFaceRecord
 10
0.0
 20
0.0
 30
0.0
 70
   128
 71
   116
 72
   117
 73
   118
 74
   119
  0
VERTEX
  5
2B9
330
1AB
100
AcDbEntity
  8
BASE
100
AcDbFaceRecord
 10
0.0
 20
0.0
 30
0.0
 70
   128
 71
   120
 72
   121
 73
   122
 74
   123
  0
VERTEX
  5
2BA
330
1AB
100
AcDbEntity
  8
BASE
100
AcDbFaceRecord
 10
0.0
 20
0.0
 30
0.0
 70
   128
 71
   124
 72
   125
 73
   126
 74
   127
  0
VERTEX
  5
2BB
330
1AB
100
AcDbEntity
  8
BASE
100
AcDbFaceRecord
 10
0.0
 20
0.0
 30
0.0
 70
   128
 71
   128
 72
   129
 73
   130
 74
   131
  0
VERTEX
  5
2BC
330
1AB
100
AcDbEntity
  8
BASE
100
AcDbFaceRecord
 10
0.0
 20
0.0
 30
0.0
 70
   128
 71
   132
 72
   133
 73
   134
 74
   135
  0
VERTEX
  5
2BD
330
1AB
100
AcDbEntity
  8
BASE
100
AcDbFaceRecord
 10
0.0
 20
0.0
 30
0.0
 70
   128
 71
   136
 72
   137
 73
   138
 74
   139
  0
VERTEX
  5
2BE
330
1AB
100
AcDbEntity
  8
BASE
100
AcDbFaceRecord
 10
0.0
 20
0.0
 30
0.0
 70
   128
 71
   140
 72
   141
 73
   142
 74
   143
  0
VERTEX
  5
2BF
330
1AB
100
AcDbEntity
  8
BASE
100
AcDbFaceRecord
 10
0.0
 20
0.0
 30
0.0
 70
   128
 71
   144
 72
   145
 73
   146
 74
   147
  0
VERTEX
  5
2C0
330
1AB
100
AcDbEntity
  8
BASE
100
AcDbFaceRecord
 10
0.0
 20
0.0
 30
0.0
 70
   128
 71
   148
 72
   149
 73
   150
 74
   151
  0
VERTEX
  5
2C1
330
1AB
100
AcDbEntity
  8
BASE
100
AcDbFaceRecord
 10
0.0
 20
0.0
 30
0.0
 70
   128
 71
   152
 72
   153
 73
   154
 74
   155
  0
VERTEX
  5
2C2
330
1AB
100
AcDbEntity
  8
BASE
100
AcDbFaceRecord
 10
0.0
 20
0.0
 30
0.0
 70
   128
 71
   156
 72
   157
 73
   158
 74
   159
  0
VERTEX
  5
2C3
330
1AB
100
AcDbEntity
  8
BASE
100
AcDbFaceRecord
 10
0.0
 20
0.0
 30
0.0
 70
   128
 71
   160
 72
   161
 73
   162
 74
   163
  0
VERTEX
  5
2C4
330
1AB
100
AcDbEntity
  8
BASE
100
AcDbFaceRecord
 10
0.0
 20
0.0
 30
0.0
 70
   128
 71
   164
 72
   165
 73
   166
 74
   167
  0
VERTEX
  5
2C5
330
1AB
100
AcDbEntity
  8
BASE
100
AcDbFaceRecord
 10
0.0
 20
0.0
 30
0.0
 70
   128
 71
   168
 72
   169
 73
   170
 74
   171
  0
VERTEX
  5
2C6
330
1AB
100
AcDbEntity
  8
BASE
100
AcDbFaceRecord
 10
0.0
 20
0.0
 30
0.0
 70
   128
 71
   172
 72
   173
 73
   174
 74
   175
  0
VERTEX
  5
2C7
330
1AB
100
AcDbEntity
  8
BASE
100
AcDbFaceRecord
 10
0.0
 20
0.0
 30
0.0
 70
   128
 71
   176
 72
   177
 73
   178
 74
   179
  0
VERTEX
  5
2C8
330
1AB
100
AcDbEntity
  8
BASE
100
AcDbFaceRecord
 10
0.0
 20
0.0
 30
0.0
 70
   128
 71
   180
 72
   181
 73
   182
 74
   183
  0
VERTEX
  5
2C9
330
1AB
100
AcDbEntity
  8
BASE
100
AcDbFaceRecord
 10
0.0
 20
0.0
 30
0.0
 70
   128
 71
   184
 72
   185
 73
   186
 74
   187
  0
VERTEX
  5
2CA
330
1AB
100
AcDbEntity
  8
BASE
100
AcDbFaceRecord
 10
0.0
 20
0.0
 30
0.0
 70
   128
 71
   188
 72
   189
 73
   190
 74
   191
  0
VERTEX
  5
2CB
330
1AB
100
AcDbEntity
  8
BASE
100
AcDbFaceRecord
 10
0.0
 20
0.0
 30
0.0
 70
   128
 71
   192
 72
   193
 73
   194
 74
   195
  0
VERTEX
  5
2CC
330
1AB
100
AcDbEntity
  8
BASE
100
AcDbFaceRecord
 10
0.0
 20
0.0
 30
0.0
 70
   128
 71
   196
 72
   197
 73
   198
 74
   199
  0
VERTEX
  5
2CD
330
1AB
100
AcDbEntity
  8
BASE
100
AcDbFaceRecord
 10
0.0
 20
0.0
 30
0.0
 70
   128
 71
   200
 72
   201
 73
   202
 74
   203
  0
VERTEX
  5
2CE
330
1AB
100
AcDbEntity
  8
BASE
100
AcDbFaceRecord
 10
0.0
 20
0.0
 30
0.0
 70
   128
 71
   204
 72
   205
 73
   206
 74
   207
  0
VERTEX
  5
2CF
330
1AB
100
AcDbEntity
  8
BASE
100
AcDbFaceRecord
 10
0.0
 20
0.0
 30
0.0
 70
   128
 71
   208
 72
   209
 73
   210
 74
   211
  0
VERTEX
  5
2D0
330
1AB
100
AcDbEntity
  8
BASE
100
AcDbFaceRecord
 10
0.0
 20
0.0
 30
0.0
 70
   128
 71
   212
 72
   213
 73
   214
 74
   215
  0
VERTEX
  5
2D1
330
1AB
100
AcDbEntity
  8
BASE
100
AcDbFaceRecord
 10
0.0
 20
0.0
 30
0.0
 70
   128
 71
   216
 72
   217
 73
   218
 74
   219
  0
VERTEX
  5
2D2
330
1AB
100
AcDbEntity
  8
BASE
100
AcDbFaceRecord
 10
0.0
 20
0.0
 30
0.0
 70
   128
 71
   220
 72
   221
 73
   222
 74
   223
  0
VERTEX
  5
2D3
330
1AB
100
AcDbEntity
  8
BASE
100
AcDbFaceRecord
 10
0.0
 20
0.0
 30
0.0
 70
   128
 71
   224
 72
   225
 73
   226
 74
   227
  0
VERTEX
  5
2D4
330
1AB
100
AcDbEntity
  8
BASE
100
AcDbFaceRecord
 10
0.0
 20
0.0
 30
0.0
 70
   128
 71
   228
 72
   229
 73
   230
 74
   231
  0
VERTEX
  5
2D5
330
1AB
100
AcDbEntity
  8
BASE
100
AcDbFaceRecord
 10
0.0
 20
0.0
 30
0.0
 70
   128
 71
   232
 72
   233
 73
   234
 74
   235
  0
VERTEX
  5
2D6
330
1AB
100
AcDbEntity
  8
BASE
100
AcDbFaceRecord
 10
0.0
 20
0.0
 30
0.0
 70
   128
 71
   236
 72
   237
 73
   238
 74
   239
  0
SEQEND
  5
2D7
330
1AB
100
AcDbEntity
  8
BASE
  0
ENDSEC
  0
SECTION
  2
OBJECTS
  0
DICTIONARY
  5
C
330
0
100
AcDbDictionary
281
     1
  3
ACAD_GROUP
350
D
  3
ACAD_LAYOUT
350
1A
  3
ACAD_MLEADERSTYLE
350
2D9
  3
ACAD_MLINESTYLE
350
17
  3
ACAD_PLOTSETTINGS
350
19
  3
ACAD_PLOTSTYLENAME
350
E
  3
ACAD_TABLESTYLE
350
2D8
  3
ACAD_VISUALSTYLE
350
2A
  0
DICTIONARY
  5
D
102
{ACAD_REACTORS
330
C
102
}
330
C
100
AcDbDictionary
281
     1
  0
DICTIONARY
  5
1A
102
{ACAD_REACTORS
330
C
102
}
330
C
100
AcDbDictionary
281
     1
  3
Layout1
350
1E
  3
Layout2
350
26
  3
Model
350
22
  0
DICTIONARY
  5
2D9
102
{ACAD_REACTORS
330
C
102
}
330
C
100
AcDbDictionary
281
     1
  0
DICTIONARY
  5
17
102
{ACAD_REACTORS
330
C
102
}
330
C
100
AcDbDictionary
281
     1
  3
Standard
350
18
  0
DICTIONARY
  5
19
102
{ACAD_REACTORS
330
C
102
}
330
C
100
AcDbDictionary
281
     1
  0
ACDBDICTIONARYWDFLT
  5
E
102
{ACAD_REACTORS
330
C
102
}
330
C
100
AcDbDictionary
281
     1
  3
Normal
350
F
100
AcDbDictionaryWithDefault
340
F
  0
DICTIONARY
  5
2D8
102
{ACAD_REACTORS
330
C
102
}
330
C
100
AcDbDictionary
281
     1
  0
DICTIONARY
  5
2A
102
{ACAD_REACTORS
330
C
102
}
330
C
100
AcDbDictionary
281
     1
  3
2dWireframe
350
2F
  3
3D Hidden
350
31
  3
3dWireframe
350
30
  3
Basic
350
32
  3
Brighten
350
36
  3
ColorChange
350
3A
  3
Conceptual
350
34
  3
Dim
350
35
  3
Facepattern
350
39
  3
Flat
350
2B
  3
FlatWithEdges
350
2C
  3
Gouraud
350
2D
  3
GouraudWithEdges
350
2E
  3
Linepattern
350
38
  3
Realistic
350
33
  3
Thicken
350
37
  0
LAYOUT
  5
1E
102
{ACAD_REACTORS
330
1A
102
}
330
1A
100
AcDbPlotSettings
  1

  2
none_device
  4

  6

 40
0.0
 41
0.0
 42
0.0
 43
0.0
 44
0.0
 45
0.0
 46
0.0
 47
0.0
 48
0.0
 49
0.0
140
0.0
141
0.0
142
1.0
143
1.0
 70
   688
 72
     0
 73
     0
 74
     5
  7

 75
    16
 76
     0
 77
     2
 78
   300
147
1.0
148
0.0
149
0.0
100
AcDbLayout
  1
Layout1
 70
     1
 71
     1
 10
0.0
 20
0.0
 11
12.0
 21
9.0
 12
0.0
 22
0.0
 32
0.0
 14
1.000000000000000E+20
 24
1.000000000000000E+20
 34
1.000000000000000E+20
 15
-1.000000000000000E+20
 25
-1.000000000000000E+20
 35
-1.000000000000000E+20
146
0.0
 13
0.0
 23
0.0
 33
0.0
 16
1.0
 26
0.0
 36
0.0
 17
0.0
 27
1.0
 37
0.0
 76
     0
330
1B
  0
LAYOUT
  5
26
102
{ACAD_REACTORS
330
1A
102
}
330
1A
100
AcDbPlotSettings
  1

  2
none_device
  4

  6

 40
0.0
 41
0.0
 42
0.0
 43
0.0
 44
0.0
 45
0.0
 46
0.0
 47
0.0
 48
0.0
 49
0.0
140
0.0
141
0.0
142
1.0
143
1.0
 70
   688
 72
     0
 73
     0
 74
     5
  7

 75
    16
 76
     0
 77
     2
 78
   300
147
1.0
148
0.0
149
0.0
100
AcDbLayout
  1
Layout2
 70
     1
 71
     2
 10
0.0
 20
0.0
 11
0.0
 21
0.0
 12
0.0
 22
0.0
 32
0.0
 14
0.0
 24
0.0
 34
0.0
 15
0.0
 25
0.0
 35
0.0
146
0.0
 13
0.0
 23
0.0
 33
0.0
 16
1.0
 26
0.0
 36
0.0
 17
0.0
 27
1.0
 37
0.0
 76
     0
330
23
  0
LAYOUT
  5
22
102
{ACAD_REACTORS
330
1A
102
}
330
1A
100
AcDbPlotSettings
  1

  2
none_device
  4

  6

 40
0.0
 41
0.0
 42
0.0
 43
0.0
 44
0.0
 45
0.0
 46
0.0
 47
0.0
 48
0.0
 49
0.0
140
0.0
141
0.0
142
1.0
143
1.0
 70
  1712
 72
     0
 73
     0
 74
     0
  7

 75
     0
 76
     0
 77
     2
 78
   300
147
1.0
148
0.0
149
0.0
100
AcDbLayout
  1
Model
 70
     1
 71
     0
 10
0.0
 20
0.0
 11
12.0
 21
9.0
 12
0.0
 22
0.0
 32
0.0
 14
0.0
 24
-61.93392181396484
 34
0.0
 15
60.0
 25
0.0
 35
170.0
146
0.0
 13
0.0
 23
0.0
 33
0.0
 16
1.0
 26
0.0
 36
0.0
 17
0.0
 27
1.0
 37
0.0
 76
     0
330
1F
331
29
  0
MLINESTYLE
  5
18
102
{ACAD_REACTORS
330
17
102
}
330
17
100
AcDbMlineStyle
  2
Standard
 70
     0
  3

 62
   256
 51
90.0
 52
90.0
 71
     2
 49
0.5
 62
   256
  6
BYLAYER
 49
-0.5
 62
   256
  6
BYLAYER
  0
ACDBPLACEHOLDER
  5
F
102
{ACAD_REACTORS
330
E
102
}
330
E
  0
VISUALSTYLE
  5
2F
102
{ACAD_REACTORS
330
2A
102
}
330
2A
100
AcDbVisualStyle
  2
2dWireframe
 70
     4
 71
     0
 72
     2
 73
     0
 90
        0
 40
-0.6
 41
-30.0
 62
     5
 63
     7
421
 16777215
 74
     1
 91
        4
 64
     7
 65
   257
 75
     1
175
     1
 42
1.0
 92
        0
 66
   257
 43
1.0
 76
     1
 77
     6
 78
     2
 67
     7
 79
     5
170
     0
171
     0
290
     0
174
     0
 93
        1
 44
0.0
173
     0
291
     0
 45
0.0
1001
ACAD
1000
AcDbSavedByObjectVersion
1070
     0
  0
VISUALSTYLE
  5
31
102
{ACAD_REACTORS
330
2A
102
}
330
2A
100
AcDbVisualStyle
  2
3D Hidden
 70
     6
 71
     1
 72
     2
 73
     2
 90
        0
 40
-0.6
 41
-30.0
 62
     5
 63
     7
421
 16777215
 74
     2
 91
        2
 64
     7
 65
   257
 75
     2
175
     1
 42
40.0
 92
        0
 66
   257
 43
1.0
 76
     1
 77
     6
 78
     2
 67
     7
 79
     3
170
     0
171
     0
290
     0
174
     0
 93
        1
 44
0.0
173
     0
291
     0
 45
0.0
1001
ACAD
1000
AcDbSavedByObjectVersion
1070
     0
  0
VISUALSTYLE
  5
30
102
{ACAD_REACTORS
330
2A
102
}
330
2A
100
AcDbVisualStyle
  2
3dWireframe
 70
     5
 71
     0
 72
     2
 73
     0
 90
        0
 40
-0.6
 41
-30.0
 62
     5
 63
     7
421
 16777215
 74
     1
 91
        4
 64
     7
 65
   257
 75
     1
175
     1
 42
1.0
 92
        0
 66
   257
 43
1.0
 76
     1
 77
     6
 78
     2
 67
     7
 79
     5
170
     0
171
     0
290
     0
174
     0
 93
        1
 44
0.0
173
     0
291
     0
 45
0.0
1001
ACAD
1000
AcDbSavedByObjectVersion
1070
     0
  0
VISUALSTYLE
  5
32
102
{ACAD_REACTORS
330
2A
102
}
330
2A
100
AcDbVisualStyle
  2
Basic
 70
     7
 71
     1
 72
     0
 73
     1
 90
        0
 40
-0.6
 41
-30.0
 62
     5
 63
     7
421
 16777215
 74
     0
 91
        4
 64
     7
 65
   257
 75
     1
175
     1
 42
1.0
 92
        8
 66
     7
 43
1.0
 76
     1
 77
     6
 78
     2
 67
     7
 79
     5
170
     0
171
     0
290
     0
174
     0
 93
        1
 44
0.0
173
     0
291
     1
 45
0.0
1001
ACAD
1000
AcDbSavedByObjectVersion
1070
     0
  0
VISUALSTYLE
  5
36
102
{ACAD_REACTORS
330
2A
102
}
330
2A
100
AcDbVisualStyle
  2
Brighten
 70
    12
 71
     2
 72
     2
 73
     0
 90
        0
 40
-0.6
 41
-30.0
 62
     5
 63
     7
421
 16777215
 74
     1
 91
        4
 64
     7
 65
   257
 75
     1
175
     1
 42
1.0
 92
        8
 66
     7
 43
1.0
 76
     1
 77
     6
 78
     2
 67
     7
 79
     5
170
     0
171
     0
290
     0
174
     0
 93
        1
 44
50.0
173
     0
291
     1
 45
0.0
1001
ACAD
1000
AcDbSavedByObjectVersion
1070
     0
  0
VISUALSTYLE
  5
3A
102
{ACAD_REACTORS
330
2A
102
}
330
2A
100
AcDbVisualStyle
  2
ColorChange
 70
    16
 71
     2
 72
     2
 73
     3
 90
        0
 40
-0.6
 41
-30.0
 62
     5
 63
     8
421
  8421504
 74
     1
 91
        4
 64
     7
 65
   257
 75
     1
175
     1
 42
1.0
 92
        8
 66
     8
424
  8421504
 43
1.0
 76
     1
 77
     6
 78
     2
 67
     7
 79
     5
170
     0
171
     0
290
     0
174
     0
 93
        1
 44
0.0
173
     0
291
     1
 45
0.0
1001
ACAD
1000
AcDbSavedByObjectVersion
1070
     0
  0
VISUALSTYLE
  5
34
102
{ACAD_REACTORS
330
2A
102
}
330
2A
100
AcDbVisualStyle
  2
Conceptual
 70
     9
 71
     3
 72
     2
 73
     0
 90
        0
 40
-0.6
 41
-30.0
 62
     5
 63
     7
421
 16777215
 74
     2
 91
        2
 64
     7
 65
   257
 75
     1
175
     1
 42
40.0
 92
        8
 66
     7
 43
1.0
 76
     1
 77
     6
 78
     2
 67
     7
 79
     3
170
     0
171
     0
290
     0
174
     0
 93
        1
 44
0.0
173
     0
291
     0
 45
0.0
1001
ACAD
1000
AcDbSavedByObjectVersion
1070
     0
  0
VISUALSTYLE
  5
35
102
{ACAD_REACTORS
330
2A
102
}
330
2A
100
AcDbVisualStyle
  2
Dim
 70
    11
 71
     2
 72
     2
 73
     0
 90
        0
 40
-0.6
 41
-30.0
 62
     5
 63
     7
421
 16777215
 74
     1
 91
        4
 64
     7
 65
   257
 75
     1
175
     1
 42
1.0
 92
        8
 66
     7
 43
1.0
 76
     1
 77
     6
 78
     2
 67
     7
 79
     5
170
     0
171
     0
290
     0
174
     0
 93
        1
 44
-50.0
173
     0
291
     1
 45
0.0
1001
ACAD
1000
AcDbSavedByObjectVersion
1070
     0
  0
VISUALSTYLE
  5
39
102
{ACAD_REACTORS
330
2A
102
}
330
2A
100
AcDbVisualStyle
  2
Facepattern
 70
    15
 71
     2
 72
     2
 73
     0
 90
        0
 40
-0.6
 41
-30.0
 62
     5
 63
     7
421
 16777215
 74
     1
 91
        4
 64
     7
 65
   257
 75
     1
175
     1
 42
1.0
 92
        8
 66
     7
 43
1.0
 76
     1
 77
     6
 78
     2
 67
     7
 79
     5
170
     0
171
     0
290
     0
174
     0
 93
        1
 44
0.0
173
     0
291
     1
 45
0.0
1001
ACAD
1000
AcDbSavedByObjectVersion
1070
     0
  0
VISUALSTYLE
  5
2B
102
{ACAD_REACTORS
330
2A
102
}
330
2A
100
AcDbVisualStyle
  2
Flat
 70
     0
 71
     2
 72
     1
 73
     1
 90
        2
 40
-0.6
 41
30.0
 62
     5
 63
     7
421
 16777215
 74
     0
 91
        4
 64
     7
 65
   257
 75
     1
175
     1
 42
1.0
 92
        8
 66
     7
 43
1.0
 76
     1
 77
     6
 78
     2
 67
     7
 79
     5
170
     0
171
     0
290
     0
174
     0
 93
       13
 44
0.0
173
     0
291
     1
 45
0.0
1001
ACAD
1000
AcDbSavedByObjectVersion
1070
     0
  0
VISUALSTYLE
  5
2C
102
{ACAD_REACTORS
330
2A
102
}
330
2A
100
AcDbVisualStyle
  2
FlatWithEdges
 70
     1
 71
     2
 72
     1
 73
     1
 90
        2
 40
-0.6
 41
30.0
 62
     5
 63
     7
421
 16777215
 74
     1
 91
        4
 64
     7
 65
   257
 75
     1
175
     1
 42
1.0
 92
        0
 66
   257
 43
1.0
 76
     1
 77
     6
 78
     2
 67
     7
 79
     5
170
     0
171
     0
290
     0
174
     0
 93
       13
 44
0.0
173
     0
291
     1
 45
0.0
1001
ACAD
1000
AcDbSavedByObjectVersion
1070
     0
  0
VISUALSTYLE
  5
2D
102
{ACAD_REACTORS
330
2A
102
}
330
2A
100
AcDbVisualStyle
  2
Gouraud
 70
     2
 71
     2
 72
     2
 73
     1
 90
        2
 40
-0.6
 41
30.0
 62
     5
 63
     7
421
 16777215
 74
     0
 91
        4
 64
     7
 65
   257
 75
     1
175
     1
 42
1.0
 92
        0
 66
     7
 43
1.0
 76
     1
 77
     6
 78
     2
 67
     7
 79
     5
170
     0
171
     0
290
     0
174
     0
 93
       13
 44
0.0
173
     0
291
     1
 45
0.0
1001
ACAD
1000
AcDbSavedByObjectVersion
1070
     0
  0
VISUALSTYLE
  5
2E
102
{ACAD_REACTORS
330
2A
102
}
330
2A
100
AcDbVisualStyle
  2
GouraudWithEdges
 70
     3
 71
     2
 72
     2
 73
     1
 90
        2
 40
-0.6
 41
30.0
 62
     5
 63
     7
421
 16777215
 74
     1
 91
        4
 64
     7
 65
   257
 75
     1
175
     1
 42
1.0
 92
        0
 66
   257
 43
1.0
 76
     1
 77
     6
 78
     2
 67
     7
 79
     5
170
     0
171
     0
290
     0
174
     0
 93
       13
 44
0.0
173
     0
291
     1
 45
0.0
1001
ACAD
1000
AcDbSavedByObjectVersion
1070
     0
  0
VISUALSTYLE
  5
38
102
{ACAD_REACTORS
330
2A
102
}
330
2A
100
AcDbVisualStyle
  2
Linepattern
 70
    14
 71
     2
 72
     2
 73
     0
 90
        0
 40
-0.6
 41
-30.0
 62
     5
 63
     7
421
 16777215
 74
     1
 91
        4
 64
     7
 65
   257
 75
     7
175
     7
 42
1.0
 92
        8
 66
     7
 43
1.0
 76
     1
 77
     6
 78
     2
 67
     7
 79
     5
170
     0
171
     0
290
     0
174
     0
 93
        1
 44
0.0
173
     0
291
     1
 45
0.0
1001
ACAD
1000
AcDbSavedByObjectVersion
1070
     0
  0
VISUALSTYLE
  5
33
102
{ACAD_REACTORS
330
2A
102
}
330
2A
100
AcDbVisualStyle
  2
Realistic
 70
     8
 71
     2
 72
     2
 73
     0
 90
        0
 40
-0.6
 41
-30.0
 62
     5
 63
     7
421
 16777215
 74
     1
 91
        0
 64
     7
 65
   257
 75
     1
175
     1
 42
1.0
 92
        8
 66
     8
424
  7895160
 43
1.0
 76
     1
 77
     6
 78
     2
 67
     7
 79
     5
170
     0
171
     0
290
     0
174
     0
 93
       13
 44
0.0
173
     0
291
     0
 45
0.0
1001
ACAD
1000
AcDbSavedByObjectVersion
1070
     0
  0
VISUALSTYLE
  5
37
102
{ACAD_REACTORS
330
2A
102
}
330
2A
100
AcDbVisualStyle
  2
Thicken
 70
    13
 71
     2
 72
     2
 73
     0
 90
        0
 40
-0.6
 41
-30.0
 62
     5
 63
     7
421
 16777215
 74
     1
 91
        4
 64
     7
 65
   257
 75
     1
175
     1
 42
1.0
 92
       12
 66
     7
 43
1.0
 76
     1
 77
     6
 78
     2
 67
     7
 79
     5
170
     0
171
     0
290
     0
174
     0
 93
        1
 44
0.0
173
     0
291
     1
 45
0.0
1001
ACAD
1000
AcDbSavedByObjectVersion
1070
     0
  0
ENDSEC
  0
EOF
