  0
SECTION
  2
HEADER
  9
$ACADVER
  1
AC1018
  9
$ACADMAINTVER
 70
     0
  9
$DWGCODEPAGE
  3
ANSI_1252
  9
$INSBASE
 10
0.0
 20
0.0
 30
0.0
  9
$EXTMIN
 10
-0.1200000000000052
 20
-20.2929389312978
 30
0.0
  9
$EXTMAX
 10
52.38
 20
19.78339694656488
 30
0.0
  9
$LIMMIN
 10
0.0
 20
0.0
  9
$LIMMAX
 10
12.0
 20
9.0
  9
$ORTHOMODE
 70
     0
  9
$REGENMODE
 70
     1
  9
$FILLMODE
 70
     1
  9
$QTEXTMODE
 70
     0
  9
$MIRRTEXT
 70
     1
  9
$LTSCALE
 40
1.0
  9
$ATTMODE
 70
     1
  9
$TEXTSIZE
 40
0.2
  9
$TRACEWID
 40
0.05
  9
$TEXTSTYLE
  7
Standard
  9
$CLAYER
  8
0
  9
$CELTYPE
  6
ByLayer
  9
$CECOLOR
 62
   256
  9
$CELTSCALE
 40
1.0
  9
$DISPSILH
 70
     0
  9
$DIMSCALE
 40
1.0
  9
$DIMASZ
 40
0.18
  9
$DIMEXO
 40
0.0625
  9
$DIMDLI
 40
0.38
  9
$DIMRND
 40
0.0
  9
$DIMDLE
 40
0.0
  9
$DIMEXE
 40
0.18
  9
$DIMTP
 40
0.0
  9
$DIMTM
 40
0.0
  9
$DIMTXT
 40
0.18
  9
$DIMCEN
 40
0.09
  9
$DIMTSZ
 40
0.0
  9
$DIMTOL
 70
     0
  9
$DIMLIM
 70
     0
  9
$DIMTIH
 70
     1
  9
$DIMTOH
 70
     1
  9
$DIMSE1
 70
     0
  9
$DIMSE2
 70
     0
  9
$DIMTAD
 70
     0
  9
$DIMZIN
 70
     0
  9
$DIMBLK
  1

  9
$DIMASO
 70
     1
  9
$DIMSHO
 70
     1
  9
$DIMPOST
  1

  9
$DIMAPOST
  1

  9
$DIMALT
 70
     0
  9
$DIMALTD
 70
     2
  9
$DIMALTF
 40
25.4
  9
$DIMLFAC
 40
1.0
  9
$DIMTOFL
 70
     0
  9
$DIMTVP
 40
0.0
  9
$DIMTIX
 70
     0
  9
$DIMSOXD
 70
     0
  9
$DIMSAH
 70
     0
  9
$DIMBLK1
  1

  9
$DIMBLK2
  1

  9
$DIMSTYLE
  2
Standard
  9
$DIMCLRD
 70
     0
  9
$DIMCLRE
 70
     0
  9
$DIMCLRT
 70
     0
  9
$DIMTFAC
 40
1.0
  9
$DIMGAP
 40
0.09
  9
$DIMJUST
 70
     0
  9
$DIMSD1
 70
     0
  9
$DIMSD2
 70
     0
  9
$DIMTOLJ
 70
     1
  9
$DIMTZIN
 70
     0
  9
$DIMALTZ
 70
     0
  9
$DIMALTTZ
 70
     0
  9
$DIMUPT
 70
     0
  9
$DIMDEC
 70
     4
  9
$DIMTDEC
 70
     4
  9
$DIMALTU
 70
     2
  9
$DIMALTTD
 70
     2
  9
$DIMTXSTY
  7
Standard
  9
$DIMAUNIT
 70
     0
  9
$DIMADEC
 70
     0
  9
$DIMALTRND
 40
0.0
  9
$DIMAZIN
 70
     0
  9
$DIMDSEP
 70
    46
  9
$DIMATFIT
 70
     3
  9
$DIMFRAC
 70
     0
  9
$DIMLDRBLK
  1

  9
$DIMLUNIT
 70
     2
  9
$DIMLWD
 70
    -2
  9
$DIMLWE
 70
    -2
  9
$DIMTMOVE
 70
     2
  9
$LUNITS
 70
     2
  9
$LUPREC
 70
     4
  9
$SKETCHINC
 40
0.1
  9
$FILLETRAD
 40
0.5
  9
$AUNITS
 70
     0
  9
$AUPREC
 70
     0
  9
$MENU
  1
.
  9
$ELEVATION
 40
0.0
  9
$PELEVATION
 40
0.0
  9
$THICKNESS
 40
0.0
  9
$LIMCHECK
 70
     0
  9
$CHAMFERA
 40
0.5
  9
$CHAMFERB
 40
0.5
  9
$CHAMFERC
 40
1.0
  9
$CHAMFERD
 40
0.0
  9
$SKPOLY
 70
     0
  9
$TDCREATE
 40
2458976.422560324
  9
$TDUCREATE
 40
2458976.547560324
  9
$TDUPDATE
 40
2458976.422560336
  9
$TDUUPDATE
 40
2458976.547560336
  9
$TDINDWG
 40
0.0000000116
  9
$TDUSRTIMER
 40
0.0000000116
  9
$USRTIMER
 70
     1
  9
$ANGBASE
 50
0.0
  9
$ANGDIR
 70
     0
  9
$PDMODE
 70
     0
  9
$PDSIZE
 40
0.0
  9
$PLINEWID
 40
0.0
  9
$SPLFRAME
 70
     0
  9
$SPLINETYPE
 70
     6
  9
$SPLINESEGS
 70
     8
  9
$HANDSEED
  5
74
  9
$SURFTAB1
 70
     6
  9
$SURFTAB2
 70
     6
  9
$SURFTYPE
 70
     6
  9
$SURFU
 70
     6
  9
$SURFV
 70
     6
  9
$UCSBASE
  2

  9
$UCSNAME
  2

  9
$UCSORG
 10
0.0
 20
0.0
 30
0.0
  9
$UCSXDIR
 10
1.0
 20
0.0
 30
0.0
  9
$UCSYDIR
 10
0.0
 20
1.0
 30
0.0
  9
$UCSORTHOREF
  2

  9
$UCSORTHOVIEW
 70
     0
  9
$UCSORGTOP
 10
0.0
 20
0.0
 30
0.0
  9
$UCSORGBOTTOM
 10
0.0
 20
0.0
 30
0.0
  9
$UCSORGLEFT
 10
0.0
 20
0.0
 30
0.0
  9
$UCSORGRIGHT
 10
0.0
 20
0.0
 30
0.0
  9
$UCSORGFRONT
 10
0.0
 20
0.0
 30
0.0
  9
$UCSORGBACK
 10
0.0
 20
0.0
 30
0.0
  9
$PUCSBASE
  2

  9
$PUCSNAME
  2

  9
$PUCSORG
 10
0.0
 20
0.0
 30
0.0
  9
$PUCSXDIR
 10
1.0
 20
0.0
 30
0.0
  9
$PUCSYDIR
 10
0.0
 20
1.0
 30
0.0
  9
$PUCSORTHOREF
  2

  9
$PUCSORTHOVIEW
 70
     0
  9
$PUCSORGTOP
 10
0.0
 20
0.0
 30
0.0
  9
$PUCSORGBOTTOM
 10
0.0
 20
0.0
 30
0.0
  9
$PUCSORGLEFT
 10
0.0
 20
0.0
 30
0.0
  9
$PUCSORGRIGHT
 10
0.0
 20
0.0
 30
0.0
  9
$PUCSORGFRONT
 10
0.0
 20
0.0
 30
0.0
  9
$PUCSORGBACK
 10
0.0
 20
0.0
 30
0.0
  9
$USERI1
 70
     0
  9
$USERI2
 70
     0
  9
$USERI3
 70
     0
  9
$USERI4
 70
     0
  9
$USERI5
 70
     0
  9
$USERR1
 40
0.0
  9
$USERR2
 40
0.0
  9
$USERR3
 40
0.0
  9
$USERR4
 40
0.0
  9
$USERR5
 40
0.0
  9
$WORLDVIEW
 70
     1
  9
$SHADEDGE
 70
     3
  9
$SHADEDIF
 70
    70
  9
$TILEMODE
 70
     1
  9
$MAXACTVP
 70
    64
  9
$PINSBASE
 10
0.0
 20
0.0
 30
0.0
  9
$PLIMCHECK
 70
     0
  9
$PEXTMIN
 10
1.000000000000000E+20
 20
1.000000000000000E+20
 30
1.000000000000000E+20
  9
$PEXTMAX
 10
-1.000000000000000E+20
 20
-1.000000000000000E+20
 30
-1.000000000000000E+20
  9
$PLIMMIN
 10
0.0
 20
0.0
  9
$PLIMMAX
 10
12.0
 20
9.0
  9
$UNITMODE
 70
     0
  9
$VISRETAIN
 70
     1
  9
$PLINEGEN
 70
     0
  9
$PSLTSCALE
 70
     1
  9
$TREEDEPTH
 70
  3020
  9
$CMLSTYLE
  2
Standard
  9
$CMLJUST
 70
     0
  9
$CMLSCALE
 40
1.0
  9
$PROXYGRAPHICS
 70
     1
  9
$MEASUREMENT
 70
     0
  9
$CELWEIGHT
370
    -1
  9
$ENDCAPS
280
     0
  9
$JOINSTYLE
280
     0
  9
$LWDISPLAY
290
     0
  9
$INSUNITS
 70
     4
  9
$HYPERLINKBASE
  1

  9
$STYLESHEET
  1

  9
$XEDIT
290
     1
  9
$CEPSNTYPE
380
     0
  9
$PSTYLEMODE
290
     1
  9
$FINGERPRINTGUID
  2
{14B2F342-6728-4C41-8990-A287D26CB944}
  9
$VERSIONGUID
  2
{FAEB1C32-E019-11D5-929B-00C0DF256EC4}
  9
$EXTNAMES
290
     1
  9
$PSVPSCALE
 40
0.0
  9
$OLESTARTUP
290
     0
  9
$SORTENTS
280
   127
  9
$INDEXCTL
280
     0
  9
$HIDETEXT
280
     1
  9
$XCLIPFRAME
290
     0
  9
$HALOGAP
280
     0
  9
$OBSCOLOR
 70
   257
  9
$OBSLTYPE
280
     0
  9
$INTERSECTIONDISPLAY
280
     0
  9
$INTERSECTIONCOLOR
 70
   257
  9
$DIMASSOC
280
     2
  9
$PROJECTNAME
  1

  0
ENDSEC
  0
SECTION
  2
CLASSES
  0
CLASS
  1
ACDBDICTIONARYWDFLT
  2
AcDbDictionaryWithDefault
  3
ObjectDBX Classes
 90
        0
 91
        4
280
     0
281
     0
  0
CLASS
  1
VISUALSTYLE
  2
AcDbVisualStyle
  3
ObjectDBX Classes
 90
     4095
 91
        4
280
     0
281
     0
  0
ENDSEC
  0
SECTION
  2
TABLES
  0
TABLE
  2
VPORT
  5
8
330
0
100
AcDbSymbolTable
 70
     1
  0
VPORT
  5
29
330
8
100
AcDbSymbolTableRecord
100
AcDbViewportTableRecord
  2
*Active
 70
     0
 10
0.0
 20
0.0
 11
1.0
 21
1.0
 12
26.13
 22
-0.2547709923664598
 13
0.0
 23
0.0
 14
0.5
 24
0.5
 15
0.5
 25
0.5
 16
0.0
 26
0.0
 36
1.0
 17
0.0
 27
0.0
 37
0.0
 40
40.87786259541993
 41
1.309999999999997
 42
50.0
 43
0.0
 44
0.0
 50
0.0
 51
0.0
 71
     0
 72
   100
 73
     1
 74
     3
 75
     0
 76
     0
 77
     0
 78
     0
281
     0
 65
     1
110
0.0
120
0.0
130
0.0
111
1.0
121
0.0
131
0.0
112
0.0
122
1.0
132
0.0
 79
     0
146
0.0
  0
ENDTAB
  0
TABLE
  2
LTYPE
  5
5
330
0
100
AcDbSymbolTable
 70
     1
  0
LTYPE
  5
14
330
5
100
AcDbSymbolTableRecord
100
AcDbLinetypeTableRecord
  2
ByBlock
 70
     0
  3

 72
    65
 73
     0
 40
0.0
  0
LTYPE
  5
15
330
5
100
AcDbSymbolTableRecord
100
AcDbLinetypeTableRecord
  2
ByLayer
 70
     0
  3

 72
    65
 73
     0
 40
0.0
  0
LTYPE
  5
16
330
5
100
AcDbSymbolTableRecord
100
AcDbLinetypeTableRecord
  2
Continuous
 70
     0
  3
Solid line
 72
    65
 73
     0
 40
0.0
  0
ENDTAB
  0
TABLE
  2
LAYER
  5
2
330
0
100
AcDbSymbolTable
 70
     2
  0
LAYER
  5
10
330
2
100
AcDbSymbolTableRecord
100
AcDbLayerTableRecord
  2
0
 70
     0
 62
     7
  6
Continuous
370
    -3
390
F
  0
LAYER
  5
3B
330
2
100
AcDbSymbolTableRecord
100
AcDbLayerTableRecord
  2
Make2D visible lines
 70
     0
 62
     7
  6
Continuous
370
    -3
390
F
  0
ENDTAB
  0
TABLE
  2
STYLE
  5
3
330
0
100
AcDbSymbolTable
 70
     1
  0
STYLE
  5
11
330
3
100
AcDbSymbolTableRecord
100
AcDbTextStyleTableRecord
  2
Standard
 70
     0
 40
0.0
 41
1.0
 50
0.0
 71
     0
 42
0.2
  3
txt
  4

  0
ENDTAB
  0
TABLE
  2
VIEW
  5
6
330
0
100
AcDbSymbolTable
 70
     0
  0
ENDTAB
  0
TABLE
  2
UCS
  5
7
330
0
100
AcDbSymbolTable
 70
     0
  0
ENDTAB
  0
TABLE
  2
APPID
  5
9
330
0
100
AcDbSymbolTable
 70
     1
  0
APPID
  5
12
330
9
100
AcDbSymbolTableRecord
100
AcDbRegAppTableRecord
  2
ACAD
 70
     0
  0
ENDTAB
  0
TABLE
  2
DIMSTYLE
  5
A
330
0
100
AcDbSymbolTable
 70
     1
100
AcDbDimStyleTable
  0
DIMSTYLE
105
27
330
A
100
AcDbSymbolTableRecord
100
AcDbDimStyleTableRecord
  2
Standard
 70
     0
340
11
  0
ENDTAB
  0
TABLE
  2
BLOCK_RECORD
  5
1
330
0
100
AcDbSymbolTable
 70
     1
  0
BLOCK_RECORD
  5
1F
330
1
100
AcDbSymbolTableRecord
100
AcDbBlockTableRecord
  2
*Model_Space
340
22
  0
BLOCK_RECORD
  5
1B
330
1
100
AcDbSymbolTableRecord
100
AcDbBlockTableRecord
  2
*Paper_Space
340
1E
  0
BLOCK_RECORD
  5
23
330
1
100
AcDbSymbolTableRecord
100
AcDbBlockTableRecord
  2
*Paper_Space0
340
26
  0
ENDTAB
  0
ENDSEC
  0
SECTION
  2
BLOCKS
  0
BLOCK
  5
20
330
1F
100
AcDbEntity
  8
0
100
AcDbBlockBegin
  2
*Model_Space
 70
     0
 10
0.0
 20
0.0
 30
0.0
  3
*Model_Space
  1

  0
ENDBLK
  5
21
330
1F
100
AcDbEntity
  8
0
100
AcDbBlockEnd
  0
BLOCK
  5
1C
330
1B
100
AcDbEntity
 67
     1
  8
0
100
AcDbBlockBegin
  2
*Paper_Space
 70
     0
 10
0.0
 20
0.0
 30
0.0
  3
*Paper_Space
  1

  0
ENDBLK
  5
1D
330
1B
100
AcDbEntity
 67
     1
  8
0
100
AcDbBlockEnd
  0
BLOCK
  5
24
330
23
100
AcDbEntity
  8
0
100
AcDbBlockBegin
  2
*Paper_Space0
 70
     0
 10
0.0
 20
0.0
 30
0.0
  3
*Paper_Space0
  1

  0
ENDBLK
  5
25
330
23
100
AcDbEntity
  8
0
100
AcDbBlockEnd
  0
ENDSEC
  0
SECTION
  2
ENTITIES
  0
SPLINE
  5
3C
330
1F
100
AcDbEntity
  8
Make2D visible lines
100
AcDbSpline
210
0.0
220
0.0
230
1.0
 70
    24
 71
     2
 72
     6
 73
     3
 74
     0
 42
0.0000000001
 43
0.0000000001
 40
0.0
 40
0.0
 40
0.0
 40
25.95771006981194
 40
25.95771006981194
 40
25.95771006981194
 10
26.35412820095988
 20
2.642106017343293
 30
0.0
 10
37.98492294698148
 20
8.457503390351041
 30
0.0
 10
49.61571769300308
 20
14.27290076335879
 30
0.0
  0
SPLINE
  5
3D
330
1F
100
AcDbEntity
  8
Make2D visible lines
100
AcDbSpline
210
0.0
220
0.0
230
1.0
 70
    24
 71
     2
 72
     6
 73
     3
 74
     0
 42
0.0000000001
 43
0.0000000001
 40
0.0
 40
0.0
 40
0.0
 40
25.71266870660617
 40
25.71266870660617
 40
25.71266870660617
 10
50.17580151370326
 20
13.99285885300875
 30
0.0
 10
38.65480173003076
 20
8.232358961170478
 30
0.0
 10
27.13380194635826
 20
2.471859069332225
 30
0.0
  0
SPLINE
  5
3E
330
1F
100
AcDbEntity
  8
Make2D visible lines
100
AcDbSpline
210
0.0
220
0.0
230
1.0
 70
    24
 71
     2
 72
     6
 73
     3
 74
     0
 42
0.0000000001
 43
0.0000000001
 40
0.0
 40
0.0
 40
0.0
 40
25.95771006255884
 40
25.95771006255884
 40
25.95771006255884
 10
2.644282280968397
 20
14.2729007633588
 30
0.0
 10
14.27507702373972
 20
8.457503391975168
 30
0.0
 10
25.90587176651103
 20
2.642106020591526
 30
0.0
  0
SPLINE
  5
3F
330
1F
100
AcDbEntity
  8
Make2D visible lines
100
AcDbSpline
210
0.0
220
0.0
230
1.0
 70
    24
 71
     2
 72
     6
 73
     3
 74
     0
 42
0.0000000001
 43
0.0000000001
 40
0.0
 40
0.0
 40
0.0
 40
25.71266870173217
 40
25.71266870173217
 40
25.71266870173217
 10
25.12619802324457
 20
2.47185907151444
 30
0.0
 10
13.60519824175635
 20
8.232358962261578
 30
0.0
 10
2.084198460268141
 20
13.99285885300871
 30
0.0
  0
SPLINE
  5
40
330
1F
100
AcDbEntity
  8
Make2D visible lines
100
AcDbSpline
210
0.0
220
0.0
230
1.0
 70
    24
 71
     2
 72
     6
 73
     3
 74
     0
 42
0.0000000001
 43
0.0000000001
 40
0.0
 40
0.0
 40
0.0
 40
25.9577100625499
 40
25.9577100625499
 40
25.9577100625499
 10
49.61571769300331
 20
-14.78244274809159
 30
0.0
 10
37.98492295023721
 20
-8.967045376707555
 30
0.0
 10
26.35412820747109
 20
-3.151648005323521
 30
0.0
  0
SPLINE
  5
41
330
1F
100
AcDbEntity
  8
Make2D visible lines
100
AcDbSpline
210
0.0
220
0.0
230
1.0
 70
    24
 71
     2
 72
     6
 73
     3
 74
     0
 42
0.0000000001
 43
0.0000000001
 40
0.0
 40
0.0
 40
0.0
 40
25.71266870174407
 40
25.71266870174407
 40
25.71266870174407
 10
27.13380195071225
 20
-2.981401056250063
 30
0.0
 10
38.65480173220782
 20
-8.74190094699585
 30
0.0
 10
50.17580151370337
 20
-14.50240083774163
 30
0.0
  0
SPLINE
  5
42
330
1F
100
AcDbEntity
  8
Make2D visible lines
100
AcDbSpline
210
0.0
220
0.0
230
1.0
 70
    24
 71
     2
 72
     6
 73
     3
 74
     0
 42
0.0000000001
 43
0.0000000001
 40
0.0
 40
0.0
 40
0.0
 40
25.95771006979672
 40
25.95771006979672
 40
25.95771006979672
 10
25.90587177299358
 20
-3.15164800207472
 30
0.0
 10
14.27507702698084
 20
-8.96704537508316
 30
0.0
 10
2.644282280968113
 20
-14.78244274809159
 30
0.0
  0
SPLINE
  5
43
330
1F
100
AcDbEntity
  8
Make2D visible lines
100
AcDbSpline
210
0.0
220
0.0
230
1.0
 70
    24
 71
     2
 72
     6
 73
     3
 74
     0
 42
0.0000000001
 43
0.0000000001
 40
0.0
 40
0.0
 40
0.0
 40
25.71266870622117
 40
25.71266870622117
 40
25.71266870622117
 10
2.084198460268034
 20
-14.50240083774166
 30
0.0
 10
13.60519824376966
 20
-8.741900945992898
 30
0.0
 10
25.12619802727128
 20
-2.981401054244132
 30
0.0
  0
SPLINE
  5
44
330
1F
100
AcDbEntity
  8
Make2D visible lines
100
AcDbSpline
210
0.0
220
0.0
230
1.0
 70
    12
 71
     2
 72
     6
 73
     3
 74
     0
 42
0.0000000001
 43
0.0000000001
 40
0.0
 40
0.0
 40
0.0
 40
0.9672253132346708
 40
0.9672253132346708
 40
0.9672253132346708
 10
24.86664156870663
 20
-2.759541984732799
 30
0.0
 41
1.0
 10
25.30361653795317
 20
-2.979943773022957
 30
0.0
 41
0.9851211508289491
 10
25.78940815619394
 20
-3.039362420571751
 30
0.0
 41
1.0
  0
SPLINE
  5
45
330
1F
100
AcDbEntity
  8
Make2D visible lines
100
AcDbSpline
210
0.0
220
0.0
230
1.0
 70
    12
 71
     2
 72
     6
 73
     3
 74
     0
 42
0.0000000001
 43
0.0000000001
 40
0.0
 40
0.0
 40
0.0
 40
1.648792908414912
 40
1.648792908414912
 40
1.648792908414912
 10
26.47059181777751
 20
2.529820435838931
 30
0.0
 41
1.0
 10
25.62619021325523
 20
2.633101759445201
 30
0.0
 41
0.9569684906431108
 10
24.86664156870662
 20
2.249999999999975
 30
0.0
 41
1.0
  0
SPLINE
  5
46
330
1F
100
AcDbEntity
  8
Make2D visible lines
100
AcDbSpline
210
0.0
220
0.0
230
1.0
 70
    12
 71
     2
 72
     6
 73
     3
 74
     0
 42
0.0000000001
 43
0.0000000001
 40
0.0
 40
0.0
 40
0.0
 40
0.9672253132346645
 40
0.9672253132346645
 40
0.9672253132346645
 10
27.3933584052648
 20
2.249999999999975
 30
0.0
 41
1.0
 10
26.95638343601827
 20
2.470401788290134
 30
0.0
 41
0.9851211508289502
 10
26.4705918177775
 20
2.529820435838931
 30
0.0
 41
1.0
  0
SPLINE
  5
47
330
1F
100
AcDbEntity
  8
Make2D visible lines
100
AcDbSpline
210
0.0
220
0.0
230
1.0
 70
    12
 71
     2
 72
     6
 73
     3
 74
     0
 42
0.0000000001
 43
0.0000000001
 40
0.0
 40
0.0
 40
0.0
 40
1.648792908414923
 40
1.648792908414923
 40
1.648792908414923
 10
25.78940815619394
 20
-3.039362420571751
 30
0.0
 41
1.0
 10
26.63380976071622
 20
-3.142643744178029
 30
0.0
 41
0.9569684906431096
 10
27.39335840526483
 20
-2.759541984732788
 30
0.0
 41
1.0
  0
SPLINE
  5
48
330
1F
100
AcDbEntity
  8
Make2D visible lines
100
AcDbSpline
210
0.0
220
0.0
230
1.0
 70
    12
 71
     2
 72
     6
 73
     3
 74
     0
 42
0.0000000001
 43
0.0000000001
 40
0.0
 40
0.0
 40
0.0
 40
1.894183537526701
 40
1.894183537526701
 40
1.894183537526701
 10
24.65750138206837
 20
2.250000000000001
 30
0.0
 41
1.0
 10
25.50589695645999
 20
2.748752701750782
 30
0.0
 41
0.947143955233851
 10
26.48275581173435
 20
2.629270129703406
 30
0.0
 41
1.0
  0
SPLINE
  5
49
330
1F
100
AcDbEntity
  8
Make2D visible lines
100
AcDbSpline
210
0.0
220
0.0
230
1.0
 70
    12
 71
     2
 72
     6
 73
     3
 74
     0
 42
0.0000000001
 43
0.0000000001
 40
0.0
 40
0.0
 40
0.0
 40
1.188274242518627
 40
1.188274242518627
 40
1.188274242518627
 10
25.77724416223709
 20
-3.138812114436222
 30
0.0
 41
1.0
 10
25.17796844885748
 20
-3.065512882706364
 30
0.0
 41
0.9790864493354419
 10
24.65750138206834
 20
-2.759541984732822
 30
0.0
 41
1.0
  0
SPLINE
  5
4A
330
1F
100
AcDbEntity
  8
Make2D visible lines
100
AcDbSpline
210
0.0
220
0.0
230
1.0
 70
    12
 71
     2
 72
     6
 73
     3
 74
     0
 42
0.0000000001
 43
0.0000000001
 40
0.0
 40
0.0
 40
0.0
 40
1.894183537526724
 40
1.894183537526724
 40
1.894183537526724
 10
27.6024985919031
 20
-2.759541984732822
 30
0.0
 41
1.0
 10
26.75410301751146
 20
-3.258294686483615
 30
0.0
 41
0.9471439552338491
 10
25.77724416223709
 20
-3.138812114436222
 30
0.0
 41
1.0
  0
SPLINE
  5
4B
330
1F
100
AcDbEntity
  8
Make2D visible lines
100
AcDbSpline
210
0.0
220
0.0
230
1.0
 70
    12
 71
     2
 72
     6
 73
     3
 74
     0
 42
0.0000000001
 43
0.0000000001
 40
0.0
 40
0.0
 40
0.0
 40
1.18827424251864
 40
1.18827424251864
 40
1.18827424251864
 10
26.48275581173435
 20
2.629270129703406
 30
0.0
 41
1.0
 10
27.08203152511397
 20
2.555970897973542
 30
0.0
 41
0.9790864493354402
 10
27.60249859190311
 20
2.249999999999992
 30
0.0
 41
1.0
  0
SPLINE
  5
4C
330
1F
100
AcDbEntity
  8
Make2D visible lines
100
AcDbSpline
210
0.0
220
0.0
230
1.0
 70
    24
 71
     2
 72
     6
 73
     3
 74
     0
 42
0.0000000001
 43
0.0000000001
 40
0.0
 40
0.0
 40
0.0
 40
49.90000000000001
 40
49.90000000000001
 40
49.90000000000001
 10
1.132385496183243
 20
19.78339694656478
 30
0.0
 10
26.13000000000004
 20
19.78339694656478
 30
0.0
 10
51.12761450381684
 20
19.78339694656478
 30
0.0
  0
SPLINE
  5
4D
330
1F
100
AcDbEntity
  8
Make2D visible lines
100
AcDbSpline
210
0.0
220
0.0
230
1.0
 70
    24
 71
     2
 72
     6
 73
     3
 74
     0
 42
0.0000000001
 43
0.0000000001
 40
0.0
 40
0.0
 40
0.0
 40
17.49999999999995
 40
17.49999999999995
 40
17.49999999999995
 10
1.132385496183243
 20
2.249999999999952
 30
0.0
 10
1.132385496183243
 20
11.01669847328237
 30
0.0
 10
1.132385496183243
 20
19.78339694656478
 30
0.0
  0
SPLINE
  5
4E
330
1F
100
AcDbEntity
  8
Make2D visible lines
100
AcDbSpline
210
0.0
220
0.0
230
1.0
 70
    24
 71
     2
 72
     6
 73
     3
 74
     0
 42
0.0000000001
 43
0.0000000001
 40
0.0
 40
0.0
 40
0.0
 40
17.50000000000005
 40
17.50000000000005
 40
17.50000000000005
 10
1.132385496183243
 20
-20.2929389312978
 30
0.0
 10
1.132385496183243
 20
-11.52624045801534
 30
0.0
 10
1.132385496183243
 20
-2.75954198473287
 30
0.0
  0
SPLINE
  5
4F
330
1F
100
AcDbEntity
  8
Make2D visible lines
100
AcDbSpline
210
0.0
220
0.0
230
1.0
 70
    24
 71
     2
 72
     6
 73
     3
 74
     0
 42
0.0000000001
 43
0.0000000001
 40
0.0
 40
0.0
 40
0.0
 40
49.90000000000001
 40
49.90000000000001
 40
49.90000000000001
 10
51.12761450381684
 20
-20.2929389312978
 30
0.0
 10
26.13000000000004
 20
-20.2929389312978
 30
0.0
 10
1.132385496183243
 20
-20.2929389312978
 30
0.0
  0
SPLINE
  5
50
330
1F
100
AcDbEntity
  8
Make2D visible lines
100
AcDbSpline
210
0.0
220
0.0
230
1.0
 70
    24
 71
     2
 72
     6
 73
     3
 74
     0
 42
0.0000000001
 43
0.0000000001
 40
0.0
 40
0.0
 40
0.0
 40
17.50000000000005
 40
17.50000000000005
 40
17.50000000000005
 10
51.12761450381684
 20
-2.75954198473287
 30
0.0
 10
51.12761450381684
 20
-11.52624045801534
 30
0.0
 10
51.12761450381684
 20
-20.2929389312978
 30
0.0
  0
SPLINE
  5
51
330
1F
100
AcDbEntity
  8
Make2D visible lines
100
AcDbSpline
210
0.0
220
0.0
230
1.0
 70
    24
 71
     2
 72
     6
 73
     3
 74
     0
 42
0.0000000001
 43
0.0000000001
 40
0.0
 40
0.0
 40
0.0
 40
17.49999999999995
 40
17.49999999999995
 40
17.49999999999995
 10
51.12761450381684
 20
19.78339694656478
 30
0.0
 10
51.12761450381684
 20
11.01669847328237
 30
0.0
 10
51.12761450381684
 20
2.249999999999952
 30
0.0
  0
SPLINE
  5
52
330
1F
100
AcDbEntity
  8
Make2D visible lines
100
AcDbSpline
210
0.0
220
0.0
230
1.0
 70
    24
 71
     2
 72
     6
 73
     3
 74
     0
 42
0.0000000001
 43
0.0000000001
 40
0.0
 40
0.0
 40
0.0
 40
49.10000000000003
 40
49.10000000000003
 40
49.10000000000003
 10
50.77694655187122
 20
14.8740458015269
 30
0.0
 10
26.18009540683304
 20
14.8740458015269
 30
0.0
 10
1.583244261794866
 20
14.8740458015269
 30
0.0
  0
SPLINE
  5
53
330
1F
100
AcDbEntity
  8
Make2D visible lines
100
AcDbSpline
210
0.0
220
0.0
230
1.0
 70
    24
 71
     2
 72
     6
 73
     3
 74
     0
 42
0.0000000001
 43
0.0000000001
 40
0.0
 40
0.0
 40
0.0
 40
0.0999999999999943
 40
0.0999999999999943
 40
0.0999999999999943
 10
50.67675571217657
 20
-15.28339694656471
 30
0.0
 10
50.72685113202389
 20
-15.28339694656471
 30
0.0
 10
50.77694655187122
 20
-15.28339694656471
 30
0.0
  0
SPLINE
  5
54
330
1F
100
AcDbEntity
  8
Make2D visible lines
100
AcDbSpline
210
0.0
220
0.0
230
1.0
 70
    24
 71
     2
 72
     6
 73
     3
 74
     0
 42
0.0000000001
 43
0.0000000001
 40
0.0
 40
0.0
 40
0.0
 40
12.49999999999984
 40
12.49999999999984
 40
12.49999999999984
 10
50.77694655187122
 20
-2.75954198473281
 30
0.0
 10
50.77694655187122
 20
-9.021469465648758
 30
0.0
 10
50.77694655187122
 20
-15.28339694656471
 30
0.0
  0
SPLINE
  5
55
330
1F
100
AcDbEntity
  8
Make2D visible lines
100
AcDbSpline
210
0.0
220
0.0
230
1.0
 70
    24
 71
     2
 72
     6
 73
     3
 74
     0
 42
0.0000000001
 43
0.0000000001
 40
0.0
 40
0.0
 40
0.0
 40
12.60000000000016
 40
12.60000000000016
 40
12.60000000000016
 10
50.77694655187122
 20
14.8740458015269
 30
0.0
 10
50.77694655187122
 20
8.56202290076346
 30
0.0
 10
50.77694655187122
 20
2.250000000000015
 30
0.0
  0
SPLINE
  5
56
330
1F
100
AcDbEntity
  8
Make2D visible lines
100
AcDbSpline
210
0.0
220
0.0
230
1.0
 70
    24
 71
     2
 72
     6
 73
     3
 74
     0
 42
0.0000000001
 43
0.0000000001
 40
0.0
 40
0.0
 40
0.0
 40
0.1000000000001791
 40
0.1000000000001791
 40
0.1000000000001791
 10
1.583244261794866
 20
14.77385496183206
 30
0.0
 10
1.583244261794866
 20
14.82395038167948
 30
0.0
 10
1.583244261794866
 20
14.8740458015269
 30
0.0
  0
SPLINE
  5
57
330
1F
100
AcDbEntity
  8
Make2D visible lines
100
AcDbSpline
210
0.0
220
0.0
230
1.0
 70
    24
 71
     2
 72
     6
 73
     3
 74
     0
 42
0.0000000001
 43
0.0000000001
 40
0.0
 40
0.0
 40
0.0
 40
12.50000000000012
 40
12.50000000000012
 40
12.50000000000012
 10
1.683435101489509
 20
2.25000000000005
 30
0.0
 10
1.683435101489509
 20
8.51192748091614
 30
0.0
 10
1.683435101489509
 20
14.77385496183223
 30
0.0
  0
SPLINE
  5
58
330
1F
100
AcDbEntity
  8
Make2D visible lines
100
AcDbSpline
210
0.0
220
0.0
230
1.0
 70
    24
 71
     2
 72
     6
 73
     3
 74
     0
 42
0.0000000001
 43
0.0000000001
 40
0.0
 40
0.0
 40
0.0
 40
12.39999999999986
 40
12.39999999999986
 40
12.39999999999986
 10
1.683435101489509
 20
-15.18320610687004
 30
0.0
 10
1.683435101489509
 20
-8.97137404580141
 30
0.0
 10
1.683435101489509
 20
-2.759541984732782
 30
0.0
  0
SPLINE
  5
59
330
1F
100
AcDbEntity
  8
Make2D visible lines
100
AcDbSpline
210
0.0
220
0.0
230
1.0
 70
    24
 71
     2
 72
     6
 73
     3
 74
     0
 42
0.0000000001
 43
0.0000000001
 40
0.0
 40
0.0
 40
0.0
 40
48.90000000000004
 40
48.90000000000004
 40
48.90000000000004
 10
50.67675571217657
 20
-15.18320610687006
 30
0.0
 10
26.18009540683304
 20
-15.18320610687005
 30
0.0
 10
1.683435101489509
 20
-15.18320610687004
 30
0.0
  0
SPLINE
  5
5A
330
1F
100
AcDbEntity
  8
Make2D visible lines
100
AcDbSpline
210
0.0
220
0.0
230
1.0
 70
    24
 71
     2
 72
     6
 73
     3
 74
     0
 42
0.0000000001
 43
0.0000000001
 40
0.0
 40
0.0
 40
0.0
 40
12.0
 40
12.0
 40
12.0
 10
50.17580151370332
 20
-2.759541984732822
 30
0.0
 10
50.17580151370335
 20
-8.770992366412207
 30
0.0
 10
50.17580151370336
 20
-14.7824427480916
 30
0.0
  0
SPLINE
  5
5B
330
1F
100
AcDbEntity
  8
Make2D visible lines
100
AcDbSpline
210
0.0
220
0.0
230
1.0
 70
    24
 71
     2
 72
     6
 73
     3
 74
     0
 42
0.0000000001
 43
0.0000000001
 40
0.0
 40
0.0
 40
0.0
 40
12.0
 40
12.0
 40
12.0
 10
50.17580151370326
 20
14.27290076335878
 30
0.0
 10
50.17580151370328
 20
8.26145038167939
 30
0.0
 10
50.1758015137033
 20
2.250000000000001
 30
0.0
  0
SPLINE
  5
5C
330
1F
100
AcDbEntity
  8
Make2D visible lines
100
AcDbSpline
210
0.0
220
0.0
230
1.0
 70
    24
 71
     2
 72
     6
 73
     3
 74
     0
 42
0.0000000001
 43
0.0000000001
 40
0.0
 40
0.0
 40
0.0
 40
49.00000000000001
 40
49.00000000000001
 40
49.00000000000001
 10
50.67675571217656
 20
14.77385496183213
 30
0.0
 10
26.12999998698571
 20
14.77385496183209
 30
0.0
 10
1.583244261794866
 20
14.77385496183206
 30
0.0
  0
SPLINE
  5
5D
330
1F
100
AcDbEntity
  8
Make2D visible lines
100
AcDbSpline
210
0.0
220
0.0
230
1.0
 70
    24
 71
     2
 72
     6
 73
     3
 74
     0
 42
0.0000000001
 43
0.0000000001
 40
0.0
 40
0.0
 40
0.0
 40
12.50000000000006
 40
12.50000000000006
 40
12.50000000000006
 10
50.67675571217656
 20
2.250000000000001
 30
0.0
 10
50.67675571217656
 20
8.511927480916066
 30
0.0
 10
50.67675571217656
 20
14.77385496183213
 30
0.0
  0
SPLINE
  5
5E
330
1F
100
AcDbEntity
  8
Make2D visible lines
100
AcDbSpline
210
0.0
220
0.0
230
1.0
 70
    24
 71
     2
 72
     6
 73
     3
 74
     0
 42
0.0000000001
 43
0.0000000001
 40
0.0
 40
0.0
 40
0.0
 40
12.50000000000006
 40
12.50000000000006
 40
12.50000000000006
 10
50.67675571217656
 20
-15.28339694656493
 30
0.0
 10
50.67675571217656
 20
-9.02146946564888
 30
0.0
 10
50.67675571217656
 20
-2.759541984732822
 30
0.0
  0
SPLINE
  5
5F
330
1F
100
AcDbEntity
  8
Make2D visible lines
100
AcDbSpline
210
0.0
220
0.0
230
1.0
 70
    24
 71
     2
 72
     6
 73
     3
 74
     0
 42
0.0000000001
 43
0.0000000001
 40
0.0
 40
0.0
 40
0.0
 40
48.00000000000022
 40
48.00000000000022
 40
48.00000000000022
 10
2.084198460268034
 20
-14.7824427480916
 30
0.0
 10
26.12999998698569
 20
-14.7824427480916
 30
0.0
 10
50.17580151370336
 20
-14.7824427480916
 30
0.0
  0
SPLINE
  5
60
330
1F
100
AcDbEntity
  8
Make2D visible lines
100
AcDbSpline
210
0.0
220
0.0
230
1.0
 70
    24
 71
     2
 72
     6
 73
     3
 74
     0
 42
0.0000000001
 43
0.0000000001
 40
0.0
 40
0.0
 40
0.0
 40
48.00000000000001
 40
48.00000000000001
 40
48.00000000000001
 10
50.17580151370326
 20
14.27290076335878
 30
0.0
 10
26.12999998698569
 20
14.27290076335878
 30
0.0
 10
2.084198460268141
 20
14.27290076335878
 30
0.0
  0
SPLINE
  5
61
330
1F
100
AcDbEntity
  8
Make2D visible lines
100
AcDbSpline
210
0.0
220
0.0
230
1.0
 70
    24
 71
     2
 72
     6
 73
     3
 74
     0
 42
0.0000000001
 43
0.0000000001
 40
0.0
 40
0.0
 40
0.0
 40
12.0
 40
12.0
 40
12.0
 10
2.084198460268077
 20
-2.759541984732822
 30
0.0
 10
2.084198460268055
 20
-8.770992366412207
 30
0.0
 10
2.084198460268034
 20
-14.7824427480916
 30
0.0
  0
SPLINE
  5
62
330
1F
100
AcDbEntity
  8
Make2D visible lines
100
AcDbSpline
210
0.0
220
0.0
230
1.0
 70
    24
 71
     2
 72
     6
 73
     3
 74
     0
 42
0.0000000001
 43
0.0000000001
 40
0.0
 40
0.0
 40
0.0
 40
12.0
 40
12.0
 40
12.0
 10
2.084198460268141
 20
14.27290076335878
 30
0.0
 10
2.084198460268105
 20
8.26145038167939
 30
0.0
 10
2.084198460268098
 20
2.250000000000001
 30
0.0
  0
SPLINE
  5
63
330
1F
100
AcDbEntity
  8
Make2D visible lines
100
AcDbSpline
210
0.0
220
0.0
230
1.0
 70
    24
 71
     2
 72
     6
 73
     3
 74
     0
 42
0.0000000001
 43
0.0000000001
 40
0.0
 40
0.0
 40
0.0
 40
49.00000000000001
 40
49.00000000000001
 40
49.00000000000001
 10
50.67675571217656
 20
-15.28339694656493
 30
0.0
 10
26.12999998698571
 20
-15.28339694656491
 30
0.0
 10
1.583244261794866
 20
-15.28339694656488
 30
0.0
  0
SPLINE
  5
64
330
1F
100
AcDbEntity
  8
Make2D visible lines
100
AcDbSpline
210
0.0
220
0.0
230
1.0
 70
    24
 71
     2
 72
     6
 73
     3
 74
     0
 42
0.0000000001
 43
0.0000000001
 40
0.0
 40
0.0
 40
0.0
 40
12.5
 40
12.5
 40
12.5
 10
1.583244261794866
 20
2.250000000000001
 30
0.0
 10
1.583244261794866
 20
8.51192748091603
 30
0.0
 10
1.583244261794866
 20
14.77385496183206
 30
0.0
  0
SPLINE
  5
65
330
1F
100
AcDbEntity
  8
Make2D visible lines
100
AcDbSpline
210
0.0
220
0.0
230
1.0
 70
    24
 71
     2
 72
     6
 73
     3
 74
     0
 42
0.0000000001
 43
0.0000000001
 40
0.0
 40
0.0
 40
0.0
 40
12.5
 40
12.5
 40
12.5
 10
1.583244261794866
 20
-15.28339694656488
 30
0.0
 10
1.583244261794866
 20
-9.02146946564885
 30
0.0
 10
1.583244261794866
 20
-2.759541984732822
 30
0.0
  0
SPLINE
  5
66
330
1F
100
AcDbEntity
  8
Make2D visible lines
100
AcDbSpline
210
0.0
220
0.0
230
1.0
 70
    24
 71
     2
 72
     6
 73
     3
 74
     0
 42
0.0000000001
 43
0.0000000001
 40
0.0
 40
0.0
 40
0.0
 40
52.40000000000001
 40
52.40000000000001
 40
52.40000000000001
 10
52.38
 20
2.250000000000001
 30
0.0
 10
26.13
 20
2.250000000000001
 30
0.0
 10
-0.1200000000000052
 20
2.250000000000001
 30
0.0
  0
SPLINE
  5
67
330
1F
100
AcDbEntity
  8
Make2D visible lines
100
AcDbSpline
210
0.0
220
0.0
230
1.0
 70
    24
 71
     2
 72
     6
 73
     3
 74
     0
 42
0.0000000001
 43
0.0000000001
 40
0.0
 40
0.0
 40
0.0
 40
5.0
 40
5.0
 40
5.0
 10
52.38
 20
-2.759541984732822
 30
0.0
 10
52.38
 20
-0.2547709923664101
 30
0.0
 10
52.38
 20
2.250000000000001
 30
0.0
  0
SPLINE
  5
68
330
1F
100
AcDbEntity
  8
Make2D visible lines
100
AcDbSpline
210
0.0
220
0.0
230
1.0
 70
    24
 71
     2
 72
     6
 73
     3
 74
     0
 42
0.0000000001
 43
0.0000000001
 40
0.0
 40
0.0
 40
0.0
 40
52.40000000000001
 40
52.40000000000001
 40
52.40000000000001
 10
-0.1200000000000052
 20
-2.759541984732822
 30
0.0
 10
26.13
 20
-2.759541984732822
 30
0.0
 10
52.38
 20
-2.759541984732822
 30
0.0
  0
SPLINE
  5
69
330
1F
100
AcDbEntity
  8
Make2D visible lines
100
AcDbSpline
210
0.0
220
0.0
230
1.0
 70
    24
 71
     2
 72
     6
 73
     3
 74
     0
 42
0.0000000001
 43
0.0000000001
 40
0.0
 40
0.0
 40
0.0
 40
5.0
 40
5.0
 40
5.0
 10
-0.1200000000000052
 20
-2.759541984732822
 30
0.0
 10
-0.1200000000000052
 20
-0.2547709923664101
 30
0.0
 10
-0.1200000000000052
 20
2.250000000000001
 30
0.0
  0
SPLINE
  5
6A
330
1F
100
AcDbEntity
  8
Make2D visible lines
100
AcDbSpline
210
0.0
220
0.0
230
1.0
 70
    24
 71
     2
 72
     6
 73
     3
 74
     0
 42
0.0000000001
 43
0.0000000001
 40
0.0
 40
0.0
 40
0.0
 40
0.0499999999999943
 40
0.0499999999999943
 40
0.0499999999999943
 10
1.132385496183243
 20
19.78339694656488
 30
0.0
 10
1.107337786259573
 20
19.78339694656488
 30
0.0
 10
1.082290076335925
 20
19.78339694656488
 30
0.0
  0
SPLINE
  5
6B
330
1F
100
AcDbEntity
  8
Make2D visible lines
100
AcDbSpline
210
0.0
220
0.0
230
1.0
 70
    24
 71
     2
 72
     6
 73
     3
 74
     0
 42
0.0000000001
 43
0.0000000001
 40
0.0
 40
0.0
 40
0.0
 40
0.0500000000000043
 40
0.0500000000000043
 40
0.0500000000000043
 10
51.17770992366415
 20
19.78339694656488
 30
0.0
 10
51.15266221374048
 20
19.78339694656488
 30
0.0
 10
51.12761450381682
 20
19.78339694656488
 30
0.0
  0
SPLINE
  5
6C
330
1F
100
AcDbEntity
  8
Make2D visible lines
100
AcDbSpline
210
0.0
220
0.0
230
1.0
 70
    24
 71
     2
 72
     6
 73
     3
 74
     0
 42
0.0000000001
 43
0.0000000001
 40
0.0
 40
0.0
 40
0.0
 40
0.0500000000000043
 40
0.0500000000000043
 40
0.0500000000000043
 10
51.12761450381682
 20
-20.2929389312977
 30
0.0
 10
51.15266221374048
 20
-20.2929389312977
 30
0.0
 10
51.17770992366415
 20
-20.2929389312977
 30
0.0
  0
SPLINE
  5
6D
330
1F
100
AcDbEntity
  8
Make2D visible lines
100
AcDbSpline
210
0.0
220
0.0
230
1.0
 70
    24
 71
     2
 72
     6
 73
     3
 74
     0
 42
0.0000000001
 43
0.0000000001
 40
0.0
 40
0.0
 40
0.0
 40
0.0499999999999972
 40
0.0499999999999972
 40
0.0499999999999972
 10
1.082290076335925
 20
-20.2929389312977
 30
0.0
 10
1.107337786259573
 20
-20.2929389312977
 30
0.0
 10
1.132385496183243
 20
-20.2929389312977
 30
0.0
  0
SPLINE
  5
6E
330
1F
100
AcDbEntity
  8
Make2D visible lines
100
AcDbSpline
210
0.0
220
0.0
230
1.0
 70
    24
 71
     2
 72
     6
 73
     3
 74
     0
 42
0.0000000001
 43
0.0000000001
 40
0.0
 40
0.0
 40
0.0
 40
17.5
 40
17.5
 40
17.5
 10
1.082290076335925
 20
-2.759541984732822
 30
0.0
 10
1.082290076335925
 20
-11.52624045801526
 30
0.0
 10
1.082290076335925
 20
-20.2929389312977
 30
0.0
  0
SPLINE
  5
6F
330
1F
100
AcDbEntity
  8
Make2D visible lines
100
AcDbSpline
210
0.0
220
0.0
230
1.0
 70
    24
 71
     2
 72
     6
 73
     3
 74
     0
 42
0.0000000001
 43
0.0000000001
 40
0.0
 40
0.0
 40
0.0
 40
17.5
 40
17.5
 40
17.5
 10
1.082290076335925
 20
19.78339694656488
 30
0.0
 10
1.082290076335925
 20
11.01669847328244
 30
0.0
 10
1.082290076335925
 20
2.250000000000001
 30
0.0
  0
SPLINE
  5
70
330
1F
100
AcDbEntity
  8
Make2D visible lines
100
AcDbSpline
210
0.0
220
0.0
230
1.0
 70
    24
 71
     2
 72
     6
 73
     3
 74
     0
 42
0.0000000001
 43
0.0000000001
 40
0.0
 40
0.0
 40
0.0
 40
17.5
 40
17.5
 40
17.5
 10
51.17770992366415
 20
-2.759541984732822
 30
0.0
 10
51.17770992366415
 20
-11.52624045801526
 30
0.0
 10
51.17770992366415
 20
-20.2929389312977
 30
0.0
  0
SPLINE
  5
71
330
1F
100
AcDbEntity
  8
Make2D visible lines
100
AcDbSpline
210
0.0
220
0.0
230
1.0
 70
    24
 71
     2
 72
     6
 73
     3
 74
     0
 42
0.0000000001
 43
0.0000000001
 40
0.0
 40
0.0
 40
0.0
 40
17.5
 40
17.5
 40
17.5
 10
51.17770992366415
 20
19.78339694656488
 30
0.0
 10
51.17770992366415
 20
11.01669847328244
 30
0.0
 10
51.17770992366415
 20
2.250000000000001
 30
0.0
  0
ENDSEC
  0
SECTION
  2
OBJECTS
  0
DICTIONARY
  5
C
330
0
100
AcDbDictionary
281
     1
  3
ACAD_GROUP
350
D
  3
ACAD_LAYOUT
350
1A
  3
ACAD_MLEADERSTYLE
350
73
  3
ACAD_MLINESTYLE
350
17
  3
ACAD_PLOTSETTINGS
350
19
  3
ACAD_PLOTSTYLENAME
350
E
  3
ACAD_TABLESTYLE
350
72
  3
ACAD_VISUALSTYLE
350
2A
  0
DICTIONARY
  5
D
102
{ACAD_REACTORS
330
C
102
}
330
C
100
AcDbDictionary
281
     1
  0
DICTIONARY
  5
1A
102
{ACAD_REACTORS
330
C
102
}
330
C
100
AcDbDictionary
281
     1
  3
Layout1
350
1E
  3
Layout2
350
26
  3
Model
350
22
  0
DICTIONARY
  5
73
102
{ACAD_REACTORS
330
C
102
}
330
C
100
AcDbDictionary
281
     1
  0
DICTIONARY
  5
17
102
{ACAD_REACTORS
330
C
102
}
330
C
100
AcDbDictionary
281
     1
  3
Standard
350
18
  0
DICTIONARY
  5
19
102
{ACAD_REACTORS
330
C
102
}
330
C
100
AcDbDictionary
281
     1
  0
ACDBDICTIONARYWDFLT
  5
E
102
{ACAD_REACTORS
330
C
102
}
330
C
100
AcDbDictionary
281
     1
  3
Normal
350
F
100
AcDbDictionaryWithDefault
340
F
  0
DICTIONARY
  5
72
102
{ACAD_REACTORS
330
C
102
}
330
C
100
AcDbDictionary
281
     1
  0
DICTIONARY
  5
2A
102
{ACAD_REACTORS
330
C
102
}
330
C
100
AcDbDictionary
281
     1
  3
2dWireframe
350
2F
  3
3D Hidden
350
31
  3
3dWireframe
350
30
  3
Basic
350
32
  3
Brighten
350
36
  3
ColorChange
350
3A
  3
Conceptual
350
34
  3
Dim
350
35
  3
Facepattern
350
39
  3
Flat
350
2B
  3
FlatWithEdges
350
2C
  3
Gouraud
350
2D
  3
GouraudWithEdges
350
2E
  3
Linepattern
350
38
  3
Realistic
350
33
  3
Thicken
350
37
  0
LAYOUT
  5
1E
102
{ACAD_REACTORS
330
1A
102
}
330
1A
100
AcDbPlotSettings
  1

  2
none_device
  4

  6

 40
0.0
 41
0.0
 42
0.0
 43
0.0
 44
0.0
 45
0.0
 46
0.0
 47
0.0
 48
0.0
 49
0.0
140
0.0
141
0.0
142
1.0
143
1.0
 70
   688
 72
     0
 73
     0
 74
     5
  7

 75
    16
 76
     0
 77
     2
 78
   300
147
1.0
148
0.0
149
0.0
100
AcDbLayout
  1
Layout1
 70
     1
 71
     1
 10
0.0
 20
0.0
 11
12.0
 21
9.0
 12
0.0
 22
0.0
 32
0.0
 14
1.000000000000000E+20
 24
1.000000000000000E+20
 34
1.000000000000000E+20
 15
-1.000000000000000E+20
 25
-1.000000000000000E+20
 35
-1.000000000000000E+20
146
0.0
 13
0.0
 23
0.0
 33
0.0
 16
1.0
 26
0.0
 36
0.0
 17
0.0
 27
1.0
 37
0.0
 76
     0
330
1B
  0
LAYOUT
  5
26
102
{ACAD_REACTORS
330
1A
102
}
330
1A
100
AcDbPlotSettings
  1

  2
none_device
  4

  6

 40
0.0
 41
0.0
 42
0.0
 43
0.0
 44
0.0
 45
0.0
 46
0.0
 47
0.0
 48
0.0
 49
0.0
140
0.0
141
0.0
142
1.0
143
1.0
 70
   688
 72
     0
 73
     0
 74
     5
  7

 75
    16
 76
     0
 77
     2
 78
   300
147
1.0
148
0.0
149
0.0
100
AcDbLayout
  1
Layout2
 70
     1
 71
     2
 10
0.0
 20
0.0
 11
0.0
 21
0.0
 12
0.0
 22
0.0
 32
0.0
 14
0.0
 24
0.0
 34
0.0
 15
0.0
 25
0.0
 35
0.0
146
0.0
 13
0.0
 23
0.0
 33
0.0
 16
1.0
 26
0.0
 36
0.0
 17
0.0
 27
1.0
 37
0.0
 76
     0
330
23
  0
LAYOUT
  5
22
102
{ACAD_REACTORS
330
1A
102
}
330
1A
100
AcDbPlotSettings
  1

  2
none_device
  4

  6

 40
0.0
 41
0.0
 42
0.0
 43
0.0
 44
0.0
 45
0.0
 46
0.0
 47
0.0
 48
0.0
 49
0.0
140
0.0
141
0.0
142
1.0
143
1.0
 70
  1712
 72
     0
 73
     0
 74
     0
  7

 75
     0
 76
     0
 77
     2
 78
   300
147
1.0
148
0.0
149
0.0
100
AcDbLayout
  1
Model
 70
     1
 71
     0
 10
0.0
 20
0.0
 11
12.0
 21
9.0
 12
0.0
 22
0.0
 32
0.0
 14
-0.1200000000000052
 24
-20.2929389312978
 34
0.0
 15
52.38
 25
19.78339694656488
 35
0.0
146
0.0
 13
0.0
 23
0.0
 33
0.0
 16
1.0
 26
0.0
 36
0.0
 17
0.0
 27
1.0
 37
0.0
 76
     0
330
1F
331
29
  0
MLINESTYLE
  5
18
102
{ACAD_REACTORS
330
17
102
}
330
17
100
AcDbMlineStyle
  2
Standard
 70
     0
  3

 62
   256
 51
90.0
 52
90.0
 71
     2
 49
0.5
 62
   256
  6
BYLAYER
 49
-0.5
 62
   256
  6
BYLAYER
  0
ACDBPLACEHOLDER
  5
F
102
{ACAD_REACTORS
330
E
102
}
330
E
  0
VISUALSTYLE
  5
2F
102
{ACAD_REACTORS
330
2A
102
}
330
2A
100
AcDbVisualStyle
  2
2dWireframe
 70
     4
 71
     0
 72
     2
 73
     0
 90
        0
 40
-0.6
 41
-30.0
 62
     5
 63
     7
421
 16777215
 74
     1
 91
        4
 64
     7
 65
   257
 75
     1
175
     1
 42
1.0
 92
        0
 66
   257
 43
1.0
 76
     1
 77
     6
 78
     2
 67
     7
 79
     5
170
     0
171
     0
290
     0
174
     0
 93
        1
 44
0.0
173
     0
291
     0
 45
0.0
1001
ACAD
1000
AcDbSavedByObjectVersion
1070
     0
  0
VISUALSTYLE
  5
31
102
{ACAD_REACTORS
330
2A
102
}
330
2A
100
AcDbVisualStyle
  2
3D Hidden
 70
     6
 71
     1
 72
     2
 73
     2
 90
        0
 40
-0.6
 41
-30.0
 62
     5
 63
     7
421
 16777215
 74
     2
 91
        2
 64
     7
 65
   257
 75
     2
175
     1
 42
40.0
 92
        0
 66
   257
 43
1.0
 76
     1
 77
     6
 78
     2
 67
     7
 79
     3
170
     0
171
     0
290
     0
174
     0
 93
        1
 44
0.0
173
     0
291
     0
 45
0.0
1001
ACAD
1000
AcDbSavedByObjectVersion
1070
     0
  0
VISUALSTYLE
  5
30
102
{ACAD_REACTORS
330
2A
102
}
330
2A
100
AcDbVisualStyle
  2
3dWireframe
 70
     5
 71
     0
 72
     2
 73
     0
 90
        0
 40
-0.6
 41
-30.0
 62
     5
 63
     7
421
 16777215
 74
     1
 91
        4
 64
     7
 65
   257
 75
     1
175
     1
 42
1.0
 92
        0
 66
   257
 43
1.0
 76
     1
 77
     6
 78
     2
 67
     7
 79
     5
170
     0
171
     0
290
     0
174
     0
 93
        1
 44
0.0
173
     0
291
     0
 45
0.0
1001
ACAD
1000
AcDbSavedByObjectVersion
1070
     0
  0
VISUALSTYLE
  5
32
102
{ACAD_REACTORS
330
2A
102
}
330
2A
100
AcDbVisualStyle
  2
Basic
 70
     7
 71
     1
 72
     0
 73
     1
 90
        0
 40
-0.6
 41
-30.0
 62
     5
 63
     7
421
 16777215
 74
     0
 91
        4
 64
     7
 65
   257
 75
     1
175
     1
 42
1.0
 92
        8
 66
     7
 43
1.0
 76
     1
 77
     6
 78
     2
 67
     7
 79
     5
170
     0
171
     0
290
     0
174
     0
 93
        1
 44
0.0
173
     0
291
     1
 45
0.0
1001
ACAD
1000
AcDbSavedByObjectVersion
1070
     0
  0
VISUALSTYLE
  5
36
102
{ACAD_REACTORS
330
2A
102
}
330
2A
100
AcDbVisualStyle
  2
Brighten
 70
    12
 71
     2
 72
     2
 73
     0
 90
        0
 40
-0.6
 41
-30.0
 62
     5
 63
     7
421
 16777215
 74
     1
 91
        4
 64
     7
 65
   257
 75
     1
175
     1
 42
1.0
 92
        8
 66
     7
 43
1.0
 76
     1
 77
     6
 78
     2
 67
     7
 79
     5
170
     0
171
     0
290
     0
174
     0
 93
        1
 44
50.0
173
     0
291
     1
 45
0.0
1001
ACAD
1000
AcDbSavedByObjectVersion
1070
     0
  0
VISUALSTYLE
  5
3A
102
{ACAD_REACTORS
330
2A
102
}
330
2A
100
AcDbVisualStyle
  2
ColorChange
 70
    16
 71
     2
 72
     2
 73
     3
 90
        0
 40
-0.6
 41
-30.0
 62
     5
 63
     8
421
  8421504
 74
     1
 91
        4
 64
     7
 65
   257
 75
     1
175
     1
 42
1.0
 92
        8
 66
     8
424
  8421504
 43
1.0
 76
     1
 77
     6
 78
     2
 67
     7
 79
     5
170
     0
171
     0
290
     0
174
     0
 93
        1
 44
0.0
173
     0
291
     1
 45
0.0
1001
ACAD
1000
AcDbSavedByObjectVersion
1070
     0
  0
VISUALSTYLE
  5
34
102
{ACAD_REACTORS
330
2A
102
}
330
2A
100
AcDbVisualStyle
  2
Conceptual
 70
     9
 71
     3
 72
     2
 73
     0
 90
        0
 40
-0.6
 41
-30.0
 62
     5
 63
     7
421
 16777215
 74
     2
 91
        2
 64
     7
 65
   257
 75
     1
175
     1
 42
40.0
 92
        8
 66
     7
 43
1.0
 76
     1
 77
     6
 78
     2
 67
     7
 79
     3
170
     0
171
     0
290
     0
174
     0
 93
        1
 44
0.0
173
     0
291
     0
 45
0.0
1001
ACAD
1000
AcDbSavedByObjectVersion
1070
     0
  0
VISUALSTYLE
  5
35
102
{ACAD_REACTORS
330
2A
102
}
330
2A
100
AcDbVisualStyle
  2
Dim
 70
    11
 71
     2
 72
     2
 73
     0
 90
        0
 40
-0.6
 41
-30.0
 62
     5
 63
     7
421
 16777215
 74
     1
 91
        4
 64
     7
 65
   257
 75
     1
175
     1
 42
1.0
 92
        8
 66
     7
 43
1.0
 76
     1
 77
     6
 78
     2
 67
     7
 79
     5
170
     0
171
     0
290
     0
174
     0
 93
        1
 44
-50.0
173
     0
291
     1
 45
0.0
1001
ACAD
1000
AcDbSavedByObjectVersion
1070
     0
  0
VISUALSTYLE
  5
39
102
{ACAD_REACTORS
330
2A
102
}
330
2A
100
AcDbVisualStyle
  2
Facepattern
 70
    15
 71
     2
 72
     2
 73
     0
 90
        0
 40
-0.6
 41
-30.0
 62
     5
 63
     7
421
 16777215
 74
     1
 91
        4
 64
     7
 65
   257
 75
     1
175
     1
 42
1.0
 92
        8
 66
     7
 43
1.0
 76
     1
 77
     6
 78
     2
 67
     7
 79
     5
170
     0
171
     0
290
     0
174
     0
 93
        1
 44
0.0
173
     0
291
     1
 45
0.0
1001
ACAD
1000
AcDbSavedByObjectVersion
1070
     0
  0
VISUALSTYLE
  5
2B
102
{ACAD_REACTORS
330
2A
102
}
330
2A
100
AcDbVisualStyle
  2
Flat
 70
     0
 71
     2
 72
     1
 73
     1
 90
        2
 40
-0.6
 41
30.0
 62
     5
 63
     7
421
 16777215
 74
     0
 91
        4
 64
     7
 65
   257
 75
     1
175
     1
 42
1.0
 92
        8
 66
     7
 43
1.0
 76
     1
 77
     6
 78
     2
 67
     7
 79
     5
170
     0
171
     0
290
     0
174
     0
 93
       13
 44
0.0
173
     0
291
     1
 45
0.0
1001
ACAD
1000
AcDbSavedByObjectVersion
1070
     0
  0
VISUALSTYLE
  5
2C
102
{ACAD_REACTORS
330
2A
102
}
330
2A
100
AcDbVisualStyle
  2
FlatWithEdges
 70
     1
 71
     2
 72
     1
 73
     1
 90
        2
 40
-0.6
 41
30.0
 62
     5
 63
     7
421
 16777215
 74
     1
 91
        4
 64
     7
 65
   257
 75
     1
175
     1
 42
1.0
 92
        0
 66
   257
 43
1.0
 76
     1
 77
     6
 78
     2
 67
     7
 79
     5
170
     0
171
     0
290
     0
174
     0
 93
       13
 44
0.0
173
     0
291
     1
 45
0.0
1001
ACAD
1000
AcDbSavedByObjectVersion
1070
     0
  0
VISUALSTYLE
  5
2D
102
{ACAD_REACTORS
330
2A
102
}
330
2A
100
AcDbVisualStyle
  2
Gouraud
 70
     2
 71
     2
 72
     2
 73
     1
 90
        2
 40
-0.6
 41
30.0
 62
     5
 63
     7
421
 16777215
 74
     0
 91
        4
 64
     7
 65
   257
 75
     1
175
     1
 42
1.0
 92
        0
 66
     7
 43
1.0
 76
     1
 77
     6
 78
     2
 67
     7
 79
     5
170
     0
171
     0
290
     0
174
     0
 93
       13
 44
0.0
173
     0
291
     1
 45
0.0
1001
ACAD
1000
AcDbSavedByObjectVersion
1070
     0
  0
VISUALSTYLE
  5
2E
102
{ACAD_REACTORS
330
2A
102
}
330
2A
100
AcDbVisualStyle
  2
GouraudWithEdges
 70
     3
 71
     2
 72
     2
 73
     1
 90
        2
 40
-0.6
 41
30.0
 62
     5
 63
     7
421
 16777215
 74
     1
 91
        4
 64
     7
 65
   257
 75
     1
175
     1
 42
1.0
 92
        0
 66
   257
 43
1.0
 76
     1
 77
     6
 78
     2
 67
     7
 79
     5
170
     0
171
     0
290
     0
174
     0
 93
       13
 44
0.0
173
     0
291
     1
 45
0.0
1001
ACAD
1000
AcDbSavedByObjectVersion
1070
     0
  0
VISUALSTYLE
  5
38
102
{ACAD_REACTORS
330
2A
102
}
330
2A
100
AcDbVisualStyle
  2
Linepattern
 70
    14
 71
     2
 72
     2
 73
     0
 90
        0
 40
-0.6
 41
-30.0
 62
     5
 63
     7
421
 16777215
 74
     1
 91
        4
 64
     7
 65
   257
 75
     7
175
     7
 42
1.0
 92
        8
 66
     7
 43
1.0
 76
     1
 77
     6
 78
     2
 67
     7
 79
     5
170
     0
171
     0
290
     0
174
     0
 93
        1
 44
0.0
173
     0
291
     1
 45
0.0
1001
ACAD
1000
AcDbSavedByObjectVersion
1070
     0
  0
VISUALSTYLE
  5
33
102
{ACAD_REACTORS
330
2A
102
}
330
2A
100
AcDbVisualStyle
  2
Realistic
 70
     8
 71
     2
 72
     2
 73
     0
 90
        0
 40
-0.6
 41
-30.0
 62
     5
 63
     7
421
 16777215
 74
     1
 91
        0
 64
     7
 65
   257
 75
     1
175
     1
 42
1.0
 92
        8
 66
     8
424
  7895160
 43
1.0
 76
     1
 77
     6
 78
     2
 67
     7
 79
     5
170
     0
171
     0
290
     0
174
     0
 93
       13
 44
0.0
173
     0
291
     0
 45
0.0
1001
ACAD
1000
AcDbSavedByObjectVersion
1070
     0
  0
VISUALSTYLE
  5
37
102
{ACAD_REACTORS
330
2A
102
}
330
2A
100
AcDbVisualStyle
  2
Thicken
 70
    13
 71
     2
 72
     2
 73
     0
 90
        0
 40
-0.6
 41
-30.0
 62
     5
 63
     7
421
 16777215
 74
     1
 91
        4
 64
     7
 65
   257
 75
     1
175
     1
 42
1.0
 92
       12
 66
     7
 43
1.0
 76
     1
 77
     6
 78
     2
 67
     7
 79
     5
170
     0
171
     0
290
     0
174
     0
 93
        1
 44
0.0
173
     0
291
     1
 45
0.0
1001
ACAD
1000
AcDbSavedByObjectVersion
1070
     0
  0
ENDSEC
  0
EOF
